Song name
# A B C D E F G H I J K L M N O P Q R S T U V W X Y Z

Washya - Dry Ice tab

-----------------------------------------------------------------------------
                         Dry Ice - Washya
-----------------------------------------------------------------------------
Tuning: Drop C (DAFCGC)
Intro
D|-------------------------------------------------|
A|-------------------------------------------------|
F|-------------------------------------------------|
C|-------------------------------------------------|
G|-7h8----7h8----7h10-7h8----7h8----7h8-----6------|
C|-----00-----00----------00-----00-----8-7---7-5~-|
PM     **     **          **     **     

Verses
D|-----------------------------------------------|
A|-----------------------------------------------|
F|-----------------------------------------------|
C|--------------------------------------9-7-9/11-|
G|------5h7----5h7------10p7----5h7-----7-5-7/9--|
C|-0000-----00-----0000------00-----000----------|
PM ****     **     ****      **     ***

D|-----------------------------------------------|
A|-----------------------------------------------|
F|-----------------------------------------------|
C|-----------------------------------------------|
G|------5h7----5h7------10p7----5h7-----99-679\\-|
C|-0000-----00-----0000------00-----000-99-679\\-|
PM ****     **     ****      **     *** 

Chorus
D|-----------------------------------------------------------------|
A|-----------------------------------------------------------------|
F|-----------------------------------------------------------------|
C|-----3---5-----------------------------------------5-----3-------|
G|-----1---3---3---7h10p8~-7h8p7---7-----1/3-5-55555-----5---5---8-|
C|-000---0---0-3-0---------------8---876-1/3-5-55555---5-------5/8-|
PM ***   *   *   * 
Tap to rate this tab
# A B C D E F G H I J K L M N O P Q R S T U V W X Y Z