Song name
# A B C D E F G H I J K L M N O P Q R S T U V W X Y Z

Washya - Slide Away tab

-----------------------------------------------------------------------------
                                     Slide Away - Washya
-----------------------------------------------------------------------------
Tuning: Drop D (EBGDAD)
Intro/Chorus
E|---------------------------------|   |-------------------------|
B|---------------------------------|   |-------------------------|
G|---------------------------------|   |-------------------------|
D|-------3-------3-------3h6-------|   |-------3-------3---------|
A|---3h5-----3h5-----3h5-----5-4-3-|   |---3h5-----3h5---5-4-3-1-|
D|-0-------0-------0---------------|x5 |-0-------0-------5-4-3-1-|
PM *       *       *                     *       * 

Verses
E|------------------------------------------------------|
B|------------------------------------------------------|
G|--------------7-7--------------5-5--------------10-10-|
D|--------------7-7--------------5-5--------------10-10-|
A|-333333333333-5-5-000000000000-3-3-555555555555-8--8--|
D|-333333333333-----000000000000-----555555555555-8--8--|
PM ************     ************     ************ 

Interlude
E|---------------------------------|
B|---------------------------------|
G|-----------------------------7\\-|
D|--------------10101010-3-3-3-7\\-|
A|--------------8-8-8-8--1-1-1-5\\-|
D|-000000000000-8-8-8-8--1-1-1-----|x15 

Interlude part 2 (Play fast)
E|-------------------------------------|
B|-------------------------------------|
G|-------------------------------------|
D|-------------------------------------|
A|-------2h3p2-----------4p3p2-3332221-|
D|-0h2h3-------5p3p0h2h5-------3332221-|x12
PM ***** ***** ********* ***** 

Intro/Chorus
E|---------------------------------|   |-------------------------|
B|---------------------------------|   |-------------------------|
G|---------------------------------|   |-------------------------|
D|-------3-------3-------3h6-------|   |-------3-------3---------|
A|---3h5-----3h5-----3h5-----5-4-3-|   |---3h5-----3h5---5-4-3-1-|
D|-0-------0-------0---------------|x5 |-0-------0-------5-4-3-1-|
PM *       *       *                     *       * 

Verses
E|------------------------------------------------------|
B|------------------------------------------------------|
G|--------------7-7--------------5-5--------------10-10-|
D|--------------7-7--------------5-5--------------10-10-|
A|-333333333333-5-5-000000000000-3-3-555555555555-8--8--|
D|-333333333333-----000000000000-----555555555555-8--8--|
PM ************     ************     ************ 
Tap to rate this tab
# A B C D E F G H I J K L M N O P Q R S T U V W X Y Z