Song name
# A B C D E F G H I J K L M N O P Q R S T U V W X Y Z

Wasp - Hellion tab

Tabbed by: H.E.L.L.I.O.N.
Email: janiel@windowslive.com

Artist: W.A.S.P.
Title: The Hellion (intro)
Album: W.A.S.P.

This one of the best songs of W.A.S.P.!Great song!I have tabed just intro yet, but I 
tab the hole song , even maybe solo. I think this tab is 99% correct.My first tab. Enjoy it.

~ :Let it ring

 First part
E|-----------------------------|------------------------------|
H|-----------------------------|------------------------------|
G|-9~------7~------5~------2~--|--9~------7~------5~------2~--|
D|-7~------5~------3~------2~--|--7~------5~------3~------2~--|
A|-------------------------0~--|--------------------------0~--|
E|-----------------------------|------------------------------|

 Second part
E|------------------------------|--------------------------------|
H|------------------------------|--------------------------------|
G|-7-9~----9-7~----7-5~----5-2~-|--7-9~----9-7~----7-5~----5-2~--|
D|-5-7~----7-5~----5-3~----3-2~-|--5-7~----7-5~----5-3~----3-2~--|
A|---------------------------0~-|----------------------------0~--|
E|------------------------------|--------------------------------|
Tap to rate this tab
 
# A B C D E F G H I J K L M N O P Q R S T U V W X Y Z