Song name
# A B C D E F G H I J K L M N O P Q R S T U V W X Y Z

Wasp - Trail Of Tears tab

Great song from the cd Dying For The World. Most of their songs are turned
down half a step, but I tabbed this out in STANDARD.

Intro (2x)

-----4-----4---------------------------------------|
-----------------7-----5-----4~------5----5------4-|
-6-6---6-----6-----6-----6-----------------------4-|
-6-------6-----6-----6-----6-------6----6---6----4-|
-4-------------------------------4----4-------4--2-|
---------------------------------------------------|


        ----    ----    ----|
        -0--    -0--    -0--|
        -6--    -2--    -4--|
Verse:  -6--    -2--    -4--|
        -4--    -0--    -2--|
        ----    ----    ----|



----------------------------12-------14-12-11----14------|
-14-14~--1412~--12/14-14~-----14-14~---------12----12~---|
-13------------------------------------------------------|
---------------------------------------------------------|
---------------------------------------------------------|
---------------------------------------------------------|

~ = let note ring...Listen for proper timing


This is pretty much the entire song. The chords aren't always alternated,
it starts towards the end of the song.
Tap to rate this tab
 
# A B C D E F G H I J K L M N O P Q R S T U V W X Y Z