Song name
# A B C D E F G H I J K L M N O P Q R S T U V W X Y Z

Wasp - Ballcrusher tab

email: portablemadness@comcast.net

Couldn't find this tab anywhere online and let's face it,
this song is badass and needs to be available.
I did my best to tab the rhythm parts....hopefully
someone else can tab the lead.  Tune Eb (1/2 step down)


Riff 1:
|------------------------------------------------------------|
|------------------------------------------------------------|
|------2-----------------------------2-----------------------|x2
|------2------------------5----------2-------------------7---|
|--3b--0--0--0--0--3p0h2--5------3b--0---0--0--0--3p0h2--5---|
|------------------------------------------------------------|

Riff 2:
 --------------------------------------------------------|
 --------------------------------------------------------|
 ------------------2----------------2-----------------2--|
 ------------------2----------------2-----------------2--|
 ----0(x10)--3-2---0---0(x10)---2-3-0---0(x10)--3-2---0--|
 ----------------3------------3---------------------3----|

cont...
 -----------------------|
 -----------------------|
 -----------------------|
 -------------7---------|
 --0(x6)--5---5---3-----|
 ---------3-------------|


Riff 3:

|----------------------------------|
|----------------------------------|
|--2-------------------------------|x4
|--2-------5--------7-------2------|
|--0-------3--------5-------3------|
|----------------------------------|

Riff 4 (solo):

|------------------------------------------------------|
|------------------------------------------------------|
|---------5--5-------------5--5-------------5--5-------|
|---------5--5--2----------5--5--2----------5--5--2----|
|---------3--3--2----------3--3--2----------3--3--2----|
|--0(x12)-------0---0(x12)-------0---0(x12)-------0----|

cont....
 ------------------------|
 ------------------------|
 ------------------------|x4
 ----------------7----2--|
 -----------7----5----2--|
 --0(x12)---5---------0--|


Riff 5:

|-----------------------------------------------|
|-----------------------------------------------|
|---------2---------------------7---------------|x2
|---------2----------2----------7----------2----|
|--0-0--0-0---0-0--0-3---0-0--0-5---0-0--0-3----|
|-----------------------------------------------|

cont....
----------------------------------|
----------------------------------|
---2---------------7--------------|
---2-------2-------7-------2------|x2
---0-------3-------5-------3------|
----------------------------------|


That's pretty much the whole song.
There are some riffs that alternate differently
throughout the song, but you get the idea because
you're so smart.
Tap to rate this tab
# A B C D E F G H I J K L M N O P Q R S T U V W X Y Z