Waterdeep - Those Who Trust tab

My arrangement of Those Who Trust, for people who saw the YouTube video and 
requested the tab.  I'm happy to answer any questions about playing this.  Thanks.

Those Who Trust - Waterdeep
Tabbed by: jg7k
Contact: youtube.com/jg7k
Tuning: Half-Step Down


VERSE 1:
              Em7                         B7
  Those who trust in the Lord...are a strong mountain
            Am      B7          Em7
  They will not...not be moved
(2x)

VERSE 2:
              Em7                          B7
  Those who trust in the Lord...are as Mount Zion
            Am      B7          Em7
  They will not...not be moved
(2x)

VERSE 3:
               Em7                              B7
  Christ the King, He sets my feet...on a firm foundation
            Am     B7          Em7
  That will not...not be moved
(2x)

CHORUS:
                  C                     B
  Though the world moves like mad
        Em
  You, Oh Lord, are faithful (You oh Lord are faithful)
    D/F#  G            C            B
  Jesus, you, you will not...not be changed


Intro/Verse basic tab and chords used:

|-------------------|-----------------------|----|
|-------------------|-----------------------|----|
|-------------------|-----------------------|----|
|-------------------|-----------5h7p5-------|----|
|-5h7-7-5-7-----5---|-5h7-7-5-7-------7-5---|----|
|-0-----0---5h7---7-|-0-----0-------------7-|----|


|-----------------|-------------------|----|
|-----------------|-------------------|----|
|-----------------|-------------------|----|
|-----------------|-------------------|----|
|-5h7-7-5h7-7-7---|-5h7-7-5h7-7-7-----|----|
|-0-----0-----0---|-0-----0-----0-----|----|


                   B7  Am B7
|-------------------7--5---7----|
|------------------10--5--10----|
|-------------------8--5---8----|
|-5-----------------7--7---7----|
|---7-5-------------9--7---9----|
|-------7-5h7-5S=---7--5---7----|
Tap to rate this tab
 
# A B C D E F G H I J K L M N O P Q R S T U V W X Y Z