Guitaretab - guitar tabs
Song name
# A B C D E F G H I J K L M N O P Q R S T U V W X Y Z

Waters Muddy - Hoochie Coochie Man tab

Muddy Waters
Hoochie Coochie Man
Tabbed by Gonseg



Verse 1 & 2 & 3:

e||---------5---| 
B||---5\8-8-----|
G||-------------|  X7
D||-------------|
A||-------------|
E||-------------|

Chorus 1:

e||-------------------------------------------------------------------------------|
B||---5\8-5\8--5h8h5h8h5h8h5h8--5\8-5\8---------------5\8-8h5-5\8h5-8-5\8-8h5-----|
G||--------------------------------------7b-7r-5-------------------------------5r-|
D||----------------------------------------------7~-------------------------------|
A||-------------------------------------------------------------------------------|
E||-------------------------------------------------------------------------------|

e||-----------------------------------------------------5------------------------------5-|
B||---5\8-8h5-5\8h5-8-5\8-8h5----5h8h5h8h5h8h5h8----5\8----5\8-8h5-5\8-8h5-------5\8-8---|
G||---------------------------5~--------------------------------------------7r-----------|
D||--------------------------------------------------------------------------------------|
A||--------------------------------------------------------------------------------------|
E||--------------------------------------------------------------------------------------|

Chorus 2:
[ Tab from: http://www.guitaretab.com/w/waters-muddy/20553.html ]
e||---------------------------------------5--------------------8b-8---------------------|
B||---------------------------------5\8-8---5-8-8-7-7-6-6-5-5--------5-8-8-7-7-6-6-5-5~-|
G||---7b-7h5-7b-75-7b-7h5-7b-7h5-5~-----------------------------------------------------|
D||-------------------------------------------------------------------------------------|
A||-------------------------------------------------------------------------------------|
E||-------------------------------------------------------------------------------------|

e||------------------------------5--5-----------------------------------|
B||---5h8h5h8h5h8h5h8h5h8--5\8-8------8b--8-8-8-7-7-7-6-6-6-5-----------|
G||-------------------------------------------------------------7-7r-5--|
D||---------------------------------------------------------------------|
A||---------------------------------------------------------------------|
E||---------------------------------------------------------------------|

Chorus 3:

e||----------------------------------------12\15-12-10----12----------------|
B||-------5h8h5h8h5h8h5h8h5h8--------------------------12----15b-15-15b-15--|
G||---7b~----------------------7b-7-5-7-------------------------------------|
D||-------------------------------------------------------------------------|
A||-------------------------------------------------------------------------|
E||-------------------------------------------------------------------------|

e||----------------------------------------|
B||---5-8------5-8-8-7-7-6-6-5-5---3-0--0--|
G||-------7r~---------------------------1--|
D||-------------------------------------2--|
A||----------------------------------------|
E||----------------------------------------|
Related for Hoochie Coochie Man tab