Guitaretab - guitar tabs
Song name
# A B C D E F G H I J K L M N O P Q R S T U V W X Y Z

Waters Roger - One Of The Few tab

Date: Sat, 7 Oct 1995 17:47:06 -0500
From: Jonathan 
Subject: TAB: One Of The Few (Roger Waters)

                                      Pink Floyd
                                      ----------
                                    One Of The Few
                                    by Roger Waters
                         from the 1983 release, The Final Cut

                                transcribed by Jonathan

Notes:

/ = slide up  \ = slide down   excluding first dash of each measure, number of
dashes indicates exact length of note

 w/clock and cars
 synth drone D
  12 str gtr
|-----------------|-----------------|-----------------|-----------------|
|-----------------|-----------------|-----------------|-----------------|
|-----------------|-----------------|-----------------|-----------------|
|-----------------|-0---------------|-0---------------|-----------------|
|-----------------|-----------------|-----------------|-----------------|
|-----------------|-----------------|-----------------|-----------------|
|
| bass
|-----------------|-----------------|-----------------|-----------------|
|-0---------------|-----------------|-----------------|-----------------|
|-----------------|-----------------|-----------------|-----------------|
|-----------------|-----------------|-----------------|-----------------|



|-----------------|-----------------|-----------------|-----------------|
|---11--11--------|---10--10-------\|---8---8---\-6-\-|-3-----3---------|
|-----------------|-----------------|-----------------|-----------------|
|-0---------------|-0---0-----------|-0---0-----------|-0---------------|
|-----------------|-----------------|-----------------|-----------------|
|-----------------|-----------------|-----------------|-----------------|



|-----------------|-----------------|-----------------|-----------------|
|---13--13--------|---11--11--------|---8---8---\-6-\-|-3-----3---------|
|-----------------|-----------------|-----------------|-----------------|
|-0---0-----------|-0---0-----------|-0---0-----0-----|-0---------------|
|-----------------|-----------------|-----------------|-----------------|
|-----------------|-----------------|-----------------|-----------------|


 Verse
|-----------------|-----------------|-----------------|-----------------|
|---11--11--------|---10--10--------|---8---8-----6-\-|-3-----3---------|
|-----------------|-----------------|-----------------|-----------------|
|-0---0-----------|-0---0-----------|-0---0-----------|-0---------------|
|-----------------|-----------------|-----------------|-----------------|
|-----------------|-----------------|-----------------|-----------------|
|
|
|-----------------|-----------------|-----------------|-----------------|
|-0---------------|-----------------|-----------------|-----------------|
|-----------------|-----------------|-----------------|-----------------|
|-----------------|-----------------|-----------------|-----------------|



|-----------------|-----------------|-----------------|-----------------|
|---13--13--------|---11--11--------|---8---8-----6-\-|-3-----3-----3---|
|-----------------|-----------------|-----------------|-----------------|
|-0---------------|-0---0-----------|-0---0-----0-----|-0---------------|
|-----------------|-----------------|-----------------|-----------------|
|-----------------|-----------------|-----------------|-----------------|


 fade in schoolyard sounds
|-----------------|-----------------|-----------------|-----------------|
|---11--11--------|---10--10--------|---8---8-----6-\-|-3-----3-5---6---|
|-----------------|-----------------|-----------------|-----------------|
|-0---0-----------|-0---0-----------|-0---0-----------|-0---------------|
|-----------------|-----------------|-----------------|-----------------|
|-----------------|-----------------|-----------------|-----------------|
|
|
|-----------------|-----------------|-----------------|-----------------|
|-----------------|-----------------|-----------------|-----------------|
|-5---------------|-----------------|-----------------|---------------/-|
|-----------------|-----------------|-----------------|-----------------|



|-----------------|-----------------|-----------------|-----------------|
|---13--13--------|---11--11--------|---8---8-----6-\-|-3---------------|
|-----------------|-----------------|-----------------|-----------------|
|-0---0-----------|-0---0-----------|-0---0-----0-----|-0---------------|
|-----------------|-----------------|-----------------|-----------------|
|-----------------|-----------------|-----------------|-----------------|



|-----------------|-----------------|---------|
|-----------------|-----------------|---------|
|-----------------|-----------------|---------|
|-----------------|-----------------|---------|
|-----------------|-----------------|---------|
|-----------------|-----------------|---------|


Verse:
 When you're one of the few
 To land on your feet
 What do you do to make ends meet? "Teach" (w/echo repeats)

 Make 'em mad
 Make 'em sad
 Make 'em add two and two

 Or make 'em me
 Or make 'em you
 Make 'em do what you want them to [Laugh]

 Make them laugh
 Make 'em cry
 Make 'em lay down and die
[ Tab from: http://www.guitaretab.com/w/waters-roger/20566.html ]
Related for One Of The Few tab