Song name
# A B C D E F G H I J K L M N O P Q R S T U V W X Y Z

Wayne Jackson - Wish You Were Here chords

Highlighted       Show chord diagrams
Wish you were here - Wayne Jackson
=================================
tabbed by: Jazzmyass
E-Mail: jazzmyass[at]live[dot]de

3rd fret capo

   D  Asus4ad13 Esus4/9 Dad11/G Gsus2  Am  G
1:-2-|----2----|---2---|---2---|--3--|-0-|-3-|
2:-3-|----3----|---3---|---3---|--3--|-1-|-3-|
3:-2-|----2----|---2---|---0---|--o--|-2-|-0-|
4:-0-|----2----|---2---|---0---|--o--|-2-|-0-|
5:---|----0----|---2---|---0---|--0--|-0-|-2-|
6:---|----0----|---0---|---3---|--3--|---|-3-|



1. Strophe:
D        Asus4ad13  Esus4/9      Dad11/G
Broke my fall       on the rocks below.

D        Asus4ad13  Esus4/9       Dad11/G 
Washed away         by the ocean's flow.

D        Asus4ad13  Esus4/9          Dad11/G 
Always wishing      the pain would    go.

D            Asus4ad13  Esus4/9           Dad11/G 
Oh days like these      no one would ever know.



Refrain:
D              Am        G          D
And I wish you were here to comfort me.
D              Am        G          D
And I wish you were here to comfort me.



2. Strophe:
D   Asus4ad13  Esus4/9     Dad11/G
Nobody         would  understand.

D     Asus4ad13     Esus4/9      Dad11/G
Deconstructions     of all our   plans.

D        Asus4ad13  Asus4/9          Dad11/G
Too sensitive       to grasp it in my hands

D        Asus4ad13  Esus4/9      Dad11/G
Be so conmplicated  like only I  can.



Refrain:
D              Am        G          D
And I wish you were here to comfort me.
D              Am        G          D
And I wish you were here to comfort me.
D              Am        G          D
And I wish you were here to comfort me.
D              Am        G          D
And I wish you were here to comfort me.



_________________________________________________________________

Strophenbegleitung:

1. Gitarre

4x

   D         Asus4ad13   Esus4/9     Dad11/G Gsus2 Dad11/G     
   
1:----2-----|----2-----|-----2-----|-----2-3-2----|
2:---3--3---|---3--3---|----3--3---|----3------3--|
3:--2----2--|--2----2--|---2-------|---0----------|
4:-0--------|-2--------|-----------|--------------|
5:----------|----------|-2---------|--------------|
6:----------|----------|-----------|-3------------|


Tap to rate this tab
 
# A B C D E F G H I J K L M N O P Q R S T U V W X Y Z