Song name
# A B C D E F G H I J K L M N O P Q R S T U V W X Y Z

We Are The Fallen - St John tab

Verse 1

E/-----------------------------------------------------------------/
B/-----------------------------------------------------------------/
G/-----------------------------------------------------------------/
D/--0-0-0-0--0-0-0-0-----0-0-0-0--0-0-0-0-----0-0-0-0--0-0-0-0-----/
A/--0-0-0-0--0-0-0-0-----0-0-0-0--0-0-0-0-----0-0-0-0--0-0-0-0-----/
E/--0-0-0-0--0-0-0-0-----0-0-0-0--0-0-0-0-----0-0-0-0--0-0-0-0-----/

E/------------------------/
B/------------------------/
G/------------------------/
D/--0-0-0-0--0-0-0-0------/
A/--0-0-0-0--0-0-0-0------/
E/--0-0-0-0--0-0-0-0------/      X3


Pre-Chorus

E/------------------------------------------------------------------/
B/------------------------------------------------------------------/
G/--7-7-7-7-7-7-7-7-7-7-7-7-7-7-7-7-7-7-7-7-7-7-7-7-7-7-7-7-7-7-7-7-/
D/--x-x-x-x-x-x-x-x-x-x-x-x-x-x-x-x-x-x-x-x-x-x-x-x-x-x-x-x-x-x-x-x-/
A/--5-5-5-5-5-5-5-5-5-5-5-5-5-5-5-5-5-5-5-5-5-5-5-5-5-5-5-5-5-5-5-5-/
E/------------------------------------------------------------------/

E/------------------------------------------------------------------/
B/------------------------------------------------------------------/
G/--3-3-3-3-3-3-3-3-3-3-3-3-3-3-3-3-3-3-3-3-3-3-3-3-3-3-3-3-3-3-3-3-/
D/--x-x-x-x-x-x-x-x-x-x-x-x-x-x-x-x-x-x-x-x-x-x-x-x-x-x-x-x-x-x-x-x-/
A/--1-1-1-1-1-1-1-1-1-1-1-1-1-1-1-1-1-1-1-1-1-1-1-1-1-1-1-1-1-1-1-1-/
E/------------------------------------------------------------------/

E/------------------------------------------------------------------/
B/------------------------------------------------------------------/
G/--7-7-7-7-7-7-7-7-7-7-7-7-7-7-7-7-7-7-7-7-7-7-7-7-7-7-7-7-7-7-7-7-/
D/--x-x-x-x-x-x-x-x-x-x-x-x-x-x-x-x-x-x-x-x-x-x-x-x-x-x-x-x-x-x-x-x-/
A/--5-5-5-5-5-5-5-5-5-5-5-5-5-5-5-5-5-5-5-5-5-5-5-5-5-5-5-5-5-5-5-5-/
E/------------------------------------------------------------------/

E/--------------------------------------------------/
B/--------------------------------------------------/
G/--10-10-10-10-10-10-10-10-10-10-10-10-10-10-10-10-/
D/--x--x--x--x--x--x--x--x--x--x--x--x--x--x--x--x--/
A/--8--8--8--8--8--8--8--8--8--8--8--8--8--8--8--8--/
E/--------------------------------------------------/

E/-------------------------------------/
B/-------------------------------------/
G/--9-9-9-9-9-9-9-9-7-7-7-7-7-7-7-7----/
D/--x-x-x-x-x-x-x-x-x-x-x-x-x-x-x-x----/
A/--5-5-5-5-5-5-5-5-5-5-5-5-5-5-5-5----/
E/-------------------------------------/


Chorus

E/---------------------------------------------------/
B/---------------------------------------------------/
G/---------------------------------------------------/
D/---------------------------------------------------/
A/---------------------------------------------------/
E/---0--0--5--0--7--0--8--0--7--0--5--0--7--0--3-----/

E/---------------------------------------------------/
B/---------------------------------------------------/
G/---------------------------------------------------/
D/---------------------------------------------------/
A/---------------------------------------------------/
E/---0--0--5--0--7--0--8--0--7--0--5--0--5-7-3-------/

E/----------------------------------------------------------------------/
B/----------------------------------------------------------------------/
G/----------------------------------------------------------------------/
D/-------7---8----------7---5---------7---8----------7---5--------------/
A/---7-8---8--------7-8---8-------7-8---8--------7-8---8----------------/
E/----------------------------------------------------------------------/

E/----------------------------------------------------------------------/
B/----------------------------------------------------------------------/
G/----------------------------------------------------------------------/
D/---7-5----------------------------------------------------------------/
A/----------8-7-5-3-----------------------------------------------------/
E/----------------------------------------------------------------------/

(Repeat whole chorus)


Verse 2

E/---------------------------------------------------------------/
B/---------------------------------------------------------------/
G/---------------------------------------------------------------/
D/--0-0-0-0--0-0-0-0-----0-0-0-0--0-0-0-0-----0-0-0-0--0-0-0-0---/
A/--0-0-0-0--0-0-0-0-----0-0-0-0--0-0-0-0-----0-0-0-0--0-0-0-0---/
E/--0-0-0-0--0-0-0-0-----0-0-0-0--0-0-0-0-----0-0-0-0--0-0-0-0---/

E/------------------------/
B/------------------------/
G/------------------------/
D/--0-0-0-0--0-0-0-0------/
A/--0-0-0-0--0-0-0-0------/
E/--0-0-0-0--0-0-0-0------/      X2


Pre-Chorus = Same as previous pre-chorus


Chorus = Same as previous chorus

E/----------------------------------------------------------------------/
B/----------------------------------------------------------------------/
G/----------------------------------------------------------------------/
D/----------------------------------------------------------------------/
A/---0---------------3---------------8---------------5------------------/
E/---0---------------3---------------8---------------5------------------/

E/------------------------------------------------------------------/
B/------------------------------------------------------------------/
G/--7-7-7-7-7-7-7-7-7-7-7-7-7-7-7-7-7-7-7-7-7-7-7-7-7-7-7-7-7-7-7-7-/
D/--x-x-x-x-x-x-x-x-x-x-x-x-x-x-x-x-x-x-x-x-x-x-x-x-x-x-x-x-x-x-x-x-/
A/--5-5-5-5-5-5-5-5-5-5-5-5-5-5-5-5-5-5-5-5-5-5-5-5-5-5-5-5-5-5-5-5-/
E/------------------------------------------------------------------/

E/--------------------------------------------------/
B/--------------------------------------------------/
G/--10-10-10-10-10-10-10-10-10-10-10-10-10-10-10-10-/
D/--x--x--x--x--x--x--x--x--x--x--x--x--x--x--x--x--/
A/--8--8--8--8--8--8--8--8--8--8--8--8--8--8--8--8--/
E/--------------------------------------------------/

E/---------------------------------/
B/---------------------------------/
G/--9---------------7--------------/
D/--x---------------x--------------/
A/--5---------------5--------------/
E/---------------------------------/


Solo

     T        T        T        T        T        T        T        T
E/--------------------------------------------------------------------------/
B/--15-13-10-15-13-10-15-13-10-15-13-10-17-13-10-17-13-10-17-13-10-17-13-10-/
G/--------------------------------------------------------------------------/
D/--------------------------------------------------------------------------/
A/--------------------------------------------------------------------------/
E/--------------------------------------------------------------------------/

     T        T        T        T        T        T        T        T
E/--------------------------------------------------------------------------/
B/--18-13-10-18-13-10-18-13-10-18-13-10-17-13-10-17-13-10-17-13-10-17-13-10-/
G/--------------------------------------------------------------------------/
D/--------------------------------------------------------------------------/
A/--------------------------------------------------------------------------/
E/--------------------------------------------------------------------------/
     
E/--------------------------------------------------------------------------/
B/--15-15-15-15-13-13-13-13-10-10-10-10-11-10----10-------------------------/
G/--------------------------------------------12----12-10-12-10-12-10-12-10-/
D/--------------------------------------------------------------------------/
A/--------------------------------------------------------------------------/
E/--------------------------------------------------------------------------/

E/-------------------/
B/-------------------/
G/-------------------/
D/-12-10-12-10-12*---/
A/-------------------/
E/-------------------/

E/------------------------------------------------------------------/
B/--10-10-10-10-10-10-10-10-8-8-8-8-8-8-8-8-11-11-11-11-11-11-11-11-/
G/------------------------------------------------------------------/
D/------------------------------------------------------------------/
A/------------------------------------------------------------------/
E/------------------------------------------------------------------/

E/---------------------------10-10-10----------13-13-13--12-----------------/
B/--10-10-10-10-10-10-10-10-----------13-13-13-----------------13----15-----/
G/-----------------------------------------------------------------------14-/
D/--------------------------------------------------------------------------/
A/--------------------------------------------------------------------------/
E/--------------------------------------------------------------------------/


Chorus


Outro

E/---------------------------------------------------/
B/---------------------------------------------------/
G/---------------------------------------------------/
D/---------------------------------------------------/
A/---------------------------------------------------/
E/---0--0--5--0--7--0--8--0--7--0--5--0--7--0--3-----/

E/---------------------------------------------------/
B/---------------------------------------------------/
G/---------------------------------------------------/
D/---------------------------------------------------/
A/---------------------------------------------------/
E/---0--0--5--0--7--0--8--0--7--0--5--0--5-7-3-------/

E/----------------------------------------------------------------------/
B/----------------------------------------------------------------------/
G/----------------------------------------------------------------------/
D/-------7---8----------7---5---------7---8----------7---5--------------/
A/---7-8---8--------7-8---8-------7-8---8--------7-8---8----------------/
E/----------------------------------------------------------------------/

E/----------------------------------------------------------------------/
B/----------------------------------------------------------------------/
G/----------------------------------------------------------------------/
D/---7-5-----------------------------------0-0-0-0--0-0-0-0-------------/
A/----------8-7-5-3------------------------0-0-0-0--0-0-0-0-------------/
E/-----------------------------------------0-0-0-0--0-0-0-0-------------/




Legend

T - Tap
* - Pinch Harmonic
(Beginners may need to research the different terms)
Tap to rate this tab
# A B C D E F G H I J K L M N O P Q R S T U V W X Y Z