Song name
# A B C D E F G H I J K L M N O P Q R S T U V W X Y Z

We The Kings - All Again For You tab

All Again For You Tab by We The Kings
Tabbed by : Adan S.
Myspace email: fightengator904@yahoo.com
Username: hero904

Drop  D  tuning
Intro: two times and verse just keep on playing this
e|-----6-------6-------6-------6--|-----6-------6-------6-------6--|
B|-8-------8-------8-------8------|-6-------6-------6-------6------|
G|---8---8---8---8---8---8---8---8|---8---8---8---8---8---8---8---8|
D|--------------------------------|--------------------------------|
A|--------------------------------|--------------------------------|
E|--------------------------------|--------------------------------|

Refrain
e--------------------------------------------------------|
B--------------------------------------------------------|
G--8-----3-----------------------------------------------|
D--8-----3-----6-----------------------------------------|
A--6-----1-----6-----------------------------------------|
E--------------6-----------------------------------------|

Chorus
e-------------------------------------------------------------|
B-------------------------------------------------------------|
G--5-----------3---5-----------3------------------------------|
D--5---6---1---3---5---6---1---3------------------------------|
A--3---6---1---1---3---6---1---1------------------------------|
E------6---1-----------6---1----------------------------------|

e-------------------------------------------------------------------|
B-------------------------------------------------------------------|
G--55-------------33---55------------3------------------------------|
D--55---66---11---33---55---66---1---3------------------------------|
A--33---66---11---11---33---66---1---1------------------------------|
E-------66---11-------------66---1----------------------------------|

Bridge two times
e-------------------------------------------------------------|
B-------------------------------------------------------------|
G-------------------------------------------------------------|
D--66--6--66--6--66--6--66--6--11--1--11--1--33--3--33--3-----|
A--66--6--66--6--66--6--66--6--11--1--11--1--33--3--33--3-----|
E--66--6--66--6--66--6--66--6--11--1--11--1--33--3--33--3-----|

e-------------------------------------------------------------|
B-------------------------------------------------------------|
G-----------3-3-3-3-------------------------------------------|
D--6-6-6-6--3-3-3-3-------------------------------------------|
A--6-6-6-6--1-1-1-1-------------------------------------------|
E--6-6-6-6----------------------------------------------------|

I recommend listen to the song two or three times cause it is a good song and it will 
you get the feel of the beat. Feel free to comment or send a message. Have fun.
Tap to rate this tab
# A B C D E F G H I J K L M N O P Q R S T U V W X Y Z