Song name
# A B C D E F G H I J K L M N O P Q R S T U V W X Y Z

We The Kings - Stay Young tab

----------------------------------------------------------------------------
			     Stay Young - Strata
----------------------------------------------------------------------------
Tabbed by: zero_revival (mitch a.)

Notes: Alright so, this is my fourth tab (i think) and this was a little tricky. The 
were deffinately layered so I know that I probably left out some parts due to not hearing 
or i couldnt figure them out.
But hopefully this is accurate enough for you all. enjoy.

I didnt tab it to the rhythm so you'll have to listen to the song to figure it out.
feel free to tell what i screwed up.

Tuning: Standard

Guitar I   clean w/effects
Guitar II  clean w/effects
Guitar III distortion
Guitar IV  distortion

INTRO (0:00-0:38)

guitar I

e|------------|  fades in (0:00-0:13)
B|--9---------|  drums enter at 0:13
G|------------|  vocals enter at 0:22
D|------------|
A|------------|
E|------------|
 tremolo pick


VERSE 1 (0:39 - 0:57)

guitar 1

e|------|--------------------|
B|-9*---|--------------------|
G|------|--------------------|
D|------|-10-11-13--10-11-13-| repeat second measure 8 times
A|------|--------------------|
E|------|--------------------|
  N.H.


CHORUS 1 (0:58 - 1:16)

  guitar I
e|--------------------|---------------------|
B|--------------------|---------------------|
G|--------------------|---------------------|
D|-10-11-13--10-11-13-|-10-11-13--10-11-13--|
A|--------------------|---------------------|
E|--------------------|---------------------|
 |
 |                                             repeat 4 times
 |
 |guitar II
e|--------------------|---------------------|
B|-13-14-16--13-14-16-|-13-14-16--13-14-16--|
G|--------------------|---------------------|
D|--------------------|---------------------|
A|--------------------|---------------------|
E|--------------------|---------------------|


POST-CHORUS  (1:16 - 1:24)

  guitar I
e|-----------------|----------------|----------------|----------------|
B|-----13--1413----|-----13--1413---|-----13--1413---|-----13--1413---|
G|-1313--13-----13-|-1313--13----13-|-1313--13----13-|-1313--13----13-|
D|-----------------|----------------|----------------|----------------|
A|-----------------|----------------|----------------|----------------|
E|-----------------|----------------|----------------|----------------|


PRE-VERSE (1:25 - 1:43)

  guitar I
e|-------------------|
B|-9-----------------|
G|-------------------|
D|-------------------|
A|-------------------|
E|-------------------|
 |tremolo pick
 |
 |
 |guitar II
e|-8-----------------|
B|-------------------|
G|-------------------|
D|-------------------|
A|-------------------|
E|-------------------|
  tremolo pick

VERSE 2 (1:44 - 2:01)

  guitar I
e|--------------------|--------------------|
B|--------------------|--------------------|
G|--------------------|--------------------| repeat 8 times
D|-10-11-13--10-11-13-|-10-11-13--10-11-13-|
A|--------------------|--------------------|
E|--------------------|--------------------|

CHORUS 2 (2:02 - 2:18)


 guitar I
e|--------------------|---------------------|
B|--------------------|---------------------|
G|--------------------|---------------------|
D|-10-11-13--10-11-13-|-10-11-13--10-11-13--|
A|--------------------|---------------------|
E|--------------------|---------------------|
 |
 |                                             repeat 4 times
 |
 |guitar II
e|--------------------|---------------------|
B|-13-14-16--13-14-16-|-13-14-16--13-14-16--|
G|--------------------|---------------------|
D|--------------------|---------------------|
A|--------------------|---------------------|
E|--------------------|---------------------|


POST CHORUS 2 (2:19 - 2:35)

  guitar I                          guitar III
e|---------------------------------|----------------------|
B|-9-------------------------------|----------------------|
G|---------------------------------|--------feedback------|
D|---------------------------------|----------------------|
A|---------------------------------|----------------------|
E|---------------------------------|----------------------|
 |tremolo pick
 |
 |
 |
 |guitar II                         guitar IV
e|---------------------------------|------------------------|
B|---------------------------------|------------------------|
G|---------------------------------|------------------------|
D|---------------------------------|------------------------|
A|---------------------------------|-----///---------///----|
E|---------------------------------|----///pickslide///-----|
  I'm not exactly sure what goes on
  here due to the layering.


BRIDGE (2:36- 3:13)

  guitar III
e|--------|---------------|--------|--------|--------|--------|
B|--------|---------------|--------|--------|--------|--------|
G|--------|---------------|44444444|44444444|55555555|55555555|
D|66666666|666610-10-10-10|44444444|44444444|xxxxxxxx|xxxxxxxx|
A|66666666|666610-10-10-10|22222222|22222222|33333333|33333333|
E|44444444|4444-8--8--8--8|--------|--------|--------|--------|
 |
 |
 |
 |
 |
 |guitar IV
e|--------|---------------|--------|----------------|----------------|
B|--------|---------------|--------|----------------|----------------|
G|--------|---------------|44444444|1717171717171717|1818181817171717|
D|66666666|666610-10-10-10|44444444|-x-x-x-x-x-x-x-x|-x-x-x-x-x-x-x-x|
A|66666666|666610-10-10-10|22222222|1515151515151515|1515151515151515|
E|44444444|4444-8--8--8--8|--------|----------------|----------------|

  guitar III
e|--------|---------------|--------|--------|--------|--------|
B|--------|---------------|--------|--------|--------|--------|
G|--------|---------------|44444444|44444444|55555555|55555555|
D|66666666|666610-10-10-10|44444444|44444444|xxxxxxxx|xxxxxxxx|
A|66666666|666610-10-10-10|22222222|22222222|33333333|33333333|
E|44444444|4444-8--8--8--8|--------|--------|--------|--------|
 |
 |
 |
 |
 |
 |guitar IV
e|--------|---------------|--------|----------------|----------------|
B|--------|---------------|--------|----------------|----------------|
G|--------|---------------|44444444|1717171717171717|1818181817171717|
D|66666666|666610-10-10-10|44444444|-x-x-x-x-x-x-x-x|-x-x-x-x-x-x-x-x|
A|66666666|666610-10-10-10|22222222|1515151515151515|1515151515151515|
E|44444444|4444-8--8--8--8|--------|----------------|----------------|


  guitar III
e|--------|--------|----------------|
B|--------|--------|----------------|
G|77777777|99999999|1313131313131313|
D|xxxxxxxx|xxxxxxxx|-x-x-x-x-x-x-x-x|
A|55555555|77777777|1111111111111111|
E|
 |
 |
 |
 |
 |
 |guitar IV
e|----------------|----------------|
B|----------------|----------------|
G|1717171717171717|1818181817171717|
D|-x-x-x-x-x-x-x-x|-x-x-x-x-x-x-x-x|
A|1515151515151515|1515151515151515|
E|----------------|----------------|

CHORUS 3 (3:14 - 3:31)

guitar I
e|---------------|---------------|--------------|---------------|
B|---------------|---------------|--------------|---------------|
G|---------------|---------------|--------------|---------------|
D|-101113-101113-|-101113-101113-|-101113-101113-|-101113-101113|
A|---------------|---------------|--------------|---------------|
E|---------------|---------------|--------------|---------------|
 |
 |
 |
 |
 |guitar III
e|--------------------|---------------------|--------------------|
B|--------------------|---------------------|--------------------|
G|--------------------|---------------------|--------------------|
D|-the same chord-----|-progression as the -|-bridge-------------|
A|--------------------|---------------------|--------------------|
E|--------------------|---------------------|--------------------|


guitar I
e|---------------|---------------|---------------|----------------|
B|---------------|---------------|---------------|----------------|
G|---------------|---------------|---------------|----------------|
D|-101113-101113-|-101113-101113-|-101113-101113-|-101113-101113--|
A|---------------|---------------|---------------|----------------|
E|---------------|---------------|---------------|----------------|
 |
 |
 |
 |
 |
 |guitar III
e|--------------------|---------------------|---------|-------|
B|--------------------|---------------------|---------|-------|
G|--------------------|---------------------|---------|---13\-|
D|-the same chord-----|-progression as the -|-bridge--|----x--|
A|--------------------|---------------------|---------|---11\-|
E|--------------------|---------------------|---------|-------|


OUTRO (3:32 - 4:12)

  guitar I
e|------------|--------------------------------------|
B|-9----------|-9-13-9-11-13-11-9-8-6-8-9------------|
G|------------|--------------------------------------|
D|------------|--------------------------------------|
A|------------|--------------------------------------|
E|------------|--------------------------------------|
              |tremolo pick, and then slowly transition
              |to alternate picking until you hit the final note.
 tremolo pick |listen to the song for the right transitions
  (3:32-3:52) |and timing.
Tap to rate this tab
# A B C D E F G H I J K L M N O P Q R S T U V W X Y Z