Song name
# A B C D E F G H I J K L M N O P Q R S T U V W X Y Z

We The Kings - Spin tab

Hopefully this helps! First tab, so go easy on me x)
Standard: EADGBe
No Capo
For both Acoustic & Electric
if anything's wrong: buffffchicken@aol.com


intro
e|--------------------------------------------------------------------|
B|--------------------------------------------------------------------|
G|---------7----------------------------------------------------------|
D|--5------7------7------9--------------------------------------------|
A|--5------5------7------9--------------------------------------------|
E|--3-------------5------7--------------------------------------------|

verse
e|--------------------------------------------------------------------|
B|--------------------------------------------------------------------|
G|---------7----------------------------------------------------------|
D|--5------7------7------9--------------------------------------------|
A|--5------5------7------9--------------------------------------------|
E|--3-------------5------7--------------------------------------------|

chorus
e|--------------------------------------------------------------------|
B|--------------------------------------------------------------------|
G|---------7----------------------------------------------------------|
D|--5------7------7------9--------------------------------------------|
A|--5------5------7------9--------------------------------------------|
E|--3-------------5------7--------------------------------------------|

verse
e|--------------------------------------------------------------------|
B|--------------------------------------------------------------------|
G|---------7----------------------------------------------------------|
D|--5------7------7------9--------------------------------------------|
A|--5------5------7------9--------------------------------------------|
E|--3-------------5------7--------------------------------------------|

bridge
e|--------------------------------------------------------------------|
B|--------------------------------------------------------------------|
G|--9-------------7---------------------------------------------------|
D|--9------5------7------7------9-------------------------------------|
A|--7------5------5------7------9-------------------------------------|
E|---------3-------------5------7-------------------------------------|

chorus
e|--------------------------------------------------------------------|
B|--------------------------------------------------------------------|
G|---------7----------------------------------------------------------|
D|--5------7------7------9--------------------------------------------|
A|--5------5------7------9--------------------------------------------|
E|--3-------------5------7--------------------------------------------|

chorus
e|--------------------------------------------------------------------|
B|--------------------------------------------------------------------|
G|---------7----------------------------------------------------------|
D|--5------7------7------9--------------------------------------------|
A|--5------5------7------9--------------------------------------------|
E|--3-------------5------7--------------------------------------------|


outro
e|--------------------------------------------------------------------|
B|--------------------------------------------------------------------|
G|---------7----------------------------------------------------------|
D|--5------7------7------9--------------------------------------------|
A|--5------5------7------9--------------------------------------------|
E|--3-------------5------7--------------------------------------------|
Tap to rate this tab
 
# A B C D E F G H I J K L M N O P Q R S T U V W X Y Z