Song name
# A B C D E F G H I J K L M N O P Q R S T U V W X Y Z

Webb Wilder - Human Cannonball tab

Webb Wilder - Human Cannonball Intro Only
#2 song off Hybrid Vigor (1990)

Tuning  - 1/2 step down

This is for my pops......believe it or not, this was one of the first songs that got me
rock n' roll when I was a kid - which eventually got me into playing guitar. I remember
to this so loud on a cassette in my Pops' VW Jetta....lol.   So thanks, Pops, for 
me listen to this on the way home to VH on Sundays.

INTRO ONLY
eb|-------------------------------------------|
Bb|-------------------------------------------|
Gb|-------------------------------------------|
Db|-------------------------------------------|
Ab|-00-0-0-0-3b-0-0-0-000-0-0-0-3b-0-0-0-3b---|
Eb|-------------------------------------------|

eb|------------------------------------------------------------------------|
Bb|------------------------------------------------------------------------|
Gb|---2p0-------0---2p0-------2---2p0-------0---2p0-------2---2p0-------0--|
Db|-------0h2-----------0h2-----------0h2-----------0h2-----------0h2------|
Ab|-0---------0---0---------0---0---------0---0---------0---0---------0---0|
Eb|------------------------------------------------------------------------|

eb|------------------------------------------------------------------------|
Bb|------------------------------------------------------------------------|
Gb|2p0-------5b---2p0-------0---2p0----------------------------------------|
Db|----0h2------------0h2-----------2p0------------------------------------|
Ab|--------0----0---------0---0---------3b-00-0-0-0-3b-0-0-0-000-0-0-0-3b-0|
Eb|------------------------------------------------------------------------|

eb|----------|
Bb|----------|
Gb|----------|
Db|----------|
Ab|-0-0-3b---|
Eb|----------|
Tap to rate this tab
# A B C D E F G H I J K L M N O P Q R S T U V W X Y Z