Song name
# A B C D E F G H I J K L M N O P Q R S T U V W X Y Z

Weekend - Rolling Stone tab

"1st Part"

E----------------------------------|
B------7--------7---------7--------|
G---------8-------8----------------|
D----------------------------------|
A---6---------6--------6-----------|
E----------------------------------|


"2nd Part"
E---------------------------------------|
B-------4-----------4----------4--------|
G-----------4-----------4---------------|
D---------------------------------------|
A---------------------------------------|
E----4------------4----------4----------|

"3rd Part" (Repeat, then Jump back to "1st Part")

E------------------------------------------------|
B---------6------------6-----------------6-------|
G-------------6------------6---------------------|
D------------------------------------------------|
A------------------------------------------------|
E----6------------6------------------6-----------|

Just Keep Repeating it...
Good Luck XD
Tap to rate this tab
 
# A B C D E F G H I J K L M N O P Q R S T U V W X Y Z