Song name
# A B C D E F G H I J K L M N O P Q R S T U V W X Y Z

Weezer - We Are All On Drugs tab

WEEZER - WE ARE ALL ON DRUGS
MAKE BELIEVE

Eb, Bb, Gb, Db, Ab, Eb

Intro:
|------------------------------------------------7------------------|
|--5-7-8-5-7-8-5-8---5-8---5-8---8-5-7-8-5-7-8-5---5-7-8-5-7-8-5~~--|
|o-----------------6-----6-----6-----------------------------------o|
|o-----------------------------------------------------------------o|
|-------------------------------------------------------------------|
|-------------------------------------------------------------------|
|
|
|-------------------------------------------------------------------|
|-------------------------------------------------------------------|
|o-9-9-9-9-9-9-9-9-6-6-6-6-6-6-6-6-5-5-5-5-5-5-5-5-7-7-7-7-7-7-7-7-o|
|o-9-9-9-9-9-9-9-9-6-6-6-6-6-6-6-6-5-5-5-5-5-5-5-5-7-7-7-7-7-7-7-7-o|
|--7-7-7-7-7-7-7-7-4-4-4-4-4-4-4-4-3-3-3-3-3-3-3-3-5-5-5-5-5-5-5-5--|
|-------------------------------------------------------------------|

Verse:
                                                            (Play 3x)
|-------------------------------------------------------------------|
|-------------------------------------------------------------------|
|o-9-9-9-9-9-9-9-9-6-6-6-6-6-6-6-6-5-5-5-5-5-5-5-5-7-7-7-7-7-7-7-7-o|
|o-9-9-9-9-9-9-9-9-6-6-6-6-6-6-6-6-5-5-5-5-5-5-5-5-7-7-7-7-7-7-7-7-o|
|--7-7-7-7-7-7-7-7-4-4-4-4-4-4-4-4-3-3-3-3-3-3-3-3-5-5-5-5-5-5-5-5--|
|-------------------------------------------------------------------|
   ...............................................................

|-------------------------------------------------------------------|
|-------------------------------------------------------------------|
|--9-9-9-9-9-9-9-9-6-6-6-6-6-6-6-6-5-5-5-5-5-5-5-5-7-7-7-7-7-x-x-x--|
|--9-9-9-9-9-9-9-9-6-6-6-6-6-6-6-6-5-5-5-5-5-5-5-5-7-7-7-7-7-x-x-x--|
|--7-7-7-7-7-7-7-7-4-4-4-4-4-4-4-4-3-3-3-3-3-3-3-3-5-5-5-5-5-x-x-x--|
|-------------------------------------------------------------------|
   .........................................................

Chorus:
|-------------------------------------------------------------------|
|-------------------------------------------------------------------|
|o-9-9-9-9-9-9-9-9-6-6-6-6-6-6-6-6-5-5-5-5-5-5-5-5-7-7-7-7-7-7-7-7-o|
|o-9-9-9-9-9-9-9-9-6-6-6-6-6-6-6-6-5-5-5-5-5-5-5-5-7-7-7-7-7-7-7-7-o|
|--7-7-7-7-7-7-7-7-4-4-4-4-4-4-4-4-3-3-3-3-3-3-3-3-5-5-5-5-5-5-5-5--|
|-------------------------------------------------------------------|

Verse:
                                                            (Play 3x)
|-------------------------------------------------------------------|
|-------------------------------------------------------------------|
|o-9-9-9-9-9-9-9-9-6-6-6-6-6-6-6-6-5-5-5-5-5-5-5-5-7-7-7-7-7-7-7-7-o|
|o-9-9-9-9-9-9-9-9-6-6-6-6-6-6-6-6-5-5-5-5-5-5-5-5-7-7-7-7-7-7-7-7-o|
|--7-7-7-7-7-7-7-7-4-4-4-4-4-4-4-4-3-3-3-3-3-3-3-3-5-5-5-5-5-5-5-5--|
|-------------------------------------------------------------------|
   ...............................................................

|-------------------------------------------------------------------|
|-------------------------------------------------------------------|
|--9-9-9-9-9-9-9-9-6-6-6-6-6-6-6-6-5-5-5-5-5-5-5-5-7-7-7-7-7-x-x-x--|
|--9-9-9-9-9-9-9-9-6-6-6-6-6-6-6-6-5-5-5-5-5-5-5-5-7-7-7-7-7-x-x-x--|
|--7-7-7-7-7-7-7-7-4-4-4-4-4-4-4-4-3-3-3-3-3-3-3-3-5-5-5-5-5-x-x-x--|
|-------------------------------------------------------------------|
   .........................................................

Chorus:
|-------------------------------------------------------------------|
|-------------------------------------------------------------------|
|o-9-9-9-9-9-9-9-9-6-6-6-6-6-6-6-6-5-5-5-5-5-5-5-5-7-7-7-7-7-7-7-7-o|
|o-9-9-9-9-9-9-9-9-6-6-6-6-6-6-6-6-5-5-5-5-5-5-5-5-7-7-7-7-7-7-7-7-o|
|--7-7-7-7-7-7-7-7-4-4-4-4-4-4-4-4-3-3-3-3-3-3-3-3-5-5-5-5-5-5-5-5--|
|-------------------------------------------------------------------|

Bridge:
|-------------------------------------------------------------------|
|-------------------------------------------------------------------|
|--2-2-2-2-2-2-2-2-4-4-4-4-4-4-4-4-5-5-5-5-5-5-5-5-5-5-5-5-5-5-5-5--|
|--2-2-2-2-2-2-2-2-4-4-4-4-4-4-4-4-5-5-5-5-5-5-5-5-5-5-5-5-5-5-5-5--|
|--0-0-0-0-0-0-0-0-2-2-2-2-2-2-2-2-3-3-3-3-3-3-3-3-3-3-3-3-3-3-3-3--|
|-------------------------------------------------------------------|


|-------------------------------------------------------------------|
|-------------------------------------------------------------------|
|--2-2-2-2-2-2-2-2-4-4-4-4-4-4-4-4-5-5-5-5-5-5-5-5-7~~~~~~-8~~~~~~--|
|--2-2-2-2-2-2-2-2-4-4-4-4-4-4-4-4-5-5-5-5-5-5-5-5-7~~~~~~-8~~~~~~--|
|--0-0-0-0-0-0-0-0-2-2-2-2-2-2-2-2-3-3-3-3-3-3-3-3-5~~~~~~-6~~~~~~--|
|-------------------------------------------------------------------|

Solo:
|---------------------------------------------------12--|
|----------------------------------------12-15~--12-----|
|-14b15r14~--14-12-14-12-----------12h14----------------|
|-----------------------14-14~--14----------------------|
|-------------------------------------------------------|
|-------------------------------------------------------|


|---------12-------14-12~----14-12~----14-12~----14-12~--|
|--15-12----15-12--------12--------12--------12----------|
|--------------------------------------------------------|
|--------------------------------------------------------|
|--------------------------------------------------------|
|--------------------------------------------------------|


|--15-14-15/17-15-17-17b18r17b18r17b18r17-15-----------|
|--------------------------------------------17-15-17~~|
|------------------------------------------------------|
|------------------------------------------------------|
|------------------------------------------------------|
|------------------------------------------------------|


|------------------------------------------------7------------------|
|--5-7-8-5-7-8-5-8---5-8---5-8---8-5-7-8-5-7-8-5---5-7-8-5-7-8-5~~--|
|o-----------------6-----6-----6-----------------------------------o|
|o-----------------------------------------------------------------o|
|-------------------------------------------------------------------|
|-------------------------------------------------------------------|
|
|
|-------------------------------------------------------------------|
|-------------------------------------------------------------------|
|o-9-9-9-9-9-9-9-9-6-6-6-6-6-6-6-6-5-5-5-5-5-5-5-5-7-7-7-7-7-7-7-7-o|
|o-9-9-9-9-9-9-9-9-6-6-6-6-6-6-6-6-5-5-5-5-5-5-5-5-7-7-7-7-7-7-7-7-o|
|--7-7-7-7-7-7-7-7-4-4-4-4-4-4-4-4-3-3-3-3-3-3-3-3-5-5-5-5-5-5-5-5--|
|-------------------------------------------------------------------|

Chorus:
|-------------------------------------------------------------------|
|-------------------------------------------------------------------|
|--9-9-9-9-9-9-9-9-6-6-6-6-6-6-6-6-5-5-5-5-5-5-5-5-7-7-7-7-7-7-7-7--|
|--9-9-9-9-9-9-9-9-6-6-6-6-6-6-6-6-5-5-5-5-5-5-5-5-7-7-7-7-7-7-7-7--|
|--7-7-7-7-7-7-7-7-4-4-4-4-4-4-4-4-3-3-3-3-3-3-3-3-5-5-5-5-5-5-5-5--|
|-------------------------------------------------------------------|


|-------------------------------------------------------------------|
|-------------------------------------------------------------------|
|--9-9-9-9-9-9-9-9-6-6-6-6-6-6-6-6-5-5-5-5-5-5-5-5-7-7-7-7-7-7-7-7--|
|--9-9-9-9-9-9-9-9-6-6-6-6-6-6-6-6-5-5-5-5-5-5-5-5-7-7-7-7-7-7-7-7--|
|--7-7-7-7-7-7-7-7-4-4-4-4-4-4-4-4-3-3-3-3-3-3-3-3-5-5-5-5-5-5-5-5--|
|-------------------------------------------------------------------|
|
|
|-------------------------------------------------------------------|
|------------------------------5-7~~---------------5-7-8-5-7-8-5~---|
|-----------------------------6-------------------------------------|
|-------------------------------------------------------------------|
|-------------------------------------------------------------------|
|-------------------------------------------------------------------|


|-------------------------------------------------------------------|
|-------------------------------------------------------------------|
|o-9-9-9-9-9-9-9-9-6-6-6-6-6-6-6-6-5-5-5-5-5-5-5-5-7-7-7-7-7-7-7-7-o|
|o-9-9-9-9-9-9-9-9-6-6-6-6-6-6-6-6-5-5-5-5-5-5-5-5-7-7-7-7-7-7-7-7-o|
|--7-7-7-7-7-7-7-7-4-4-4-4-4-4-4-4-3-3-3-3-3-3-3-3-5-5-5-5-5-5-5-5--|
|-------------------------------------------------------------------|
|
|
|-------------------------------------------------------------------|
|--9-9-9-9-9-9-9-9-9-9-9-9-9-9-9-9-8-8-8-8-8-8-8-8-7-7-7-7-7-7-7-7--|
|o-x-x-x-x-x-x-x-x-x-x-x-x-x-x-x-x-x-x-x-x-x-x-x-x-x-x-x-x-x-x-x-x-o|
|o-6-6-6-6-6-6-6-6-6-6-6-6-6-6-6-6-5-5-5-5-5-5-5-5-4-4-4-4-4-4-4-4-o|
|-------------------------------------------------------------------|
|-------------------------------------------------------------------|


|----------|
|----------|
|--9~~~----|
|--9~~~----|
|--7~~~----|
|----------|
|
|
|----------|
|--5~~~----|
|--x~~~----|
|--2~~~----|
|----------|
|----------|
Tap to rate this tab
 
# A B C D E F G H I J K L M N O P Q R S T U V W X Y Z