Song name
# A B C D E F G H I J K L M N O P Q R S T U V W X Y Z

Weird Al Yankovic - Couch tab

Help us improve GuitareTab! Take a short survey!
weird al is the best hit me up at derek2493@yahoo.com

*intro*
----------------------------------------------------|
----------------------------------------------------|
----------------------------------------------------|
--5--5--5--5--5--5--5--5--5--5--5--5--5--5--5--5--5-|
--7--7--7--7--7--7--7--7--8--8--8--8--8--8--8--8--0-|
----------------------------------------------------|



----------------------------------------------------|
----------------------------------------------------|
----------------------------------------------------|
--5--5--5--5--5--5--5--5--5--5--5--5--5--5--5--5--5-|
--7--7--7--7--7--7--7--7--8--8--8--8--8--8--8--8--0-|
----------------------------------------------------|

----------------------------------------------------|
----------------------------------------------------|
----------------------------------------------------|
--5--5--5--5--5--5--5--5--5--5--5--5--5--5--5--5--5-|
--7--7--7--7--7--7--7--7--8--8--8--8--8--8--8--8--0-|
----------------------------------------------------|

------------------------------------------------------|
------------------------------------------------------|
------------------------------------------------------|
--5--5--5--5--5--5--5--5--5--5--5--5--5---5-5-5-5-5-5-|
--7--7--7--7--7--7--7--7--8--8--8--8--8---8-8-7-8-8-7-|
Related for Couch tab