Guitaretab - guitar tabs
Song name
# A B C D E F G H I J K L M N O P Q R S T U V W X Y Z

Weller Paul - Into Tomorrow tab

Into tommorow

Great song, easy to play.

Standard tuning

Intro

G chord

E -3-----3-3-3-3---3-------------3-----3-3-3-6-3------|
a ----------------------------------------------------|
d -----0-------------0------0--------0----------------|
g ---0---------2p0-2----2-0---0----0------------------|
b -3-----3-1-0--------0----------3-----3-1-0-6-3------|
e -----------------------------------------------3----|
[ Tab from: http://www.guitaretab.com/w/weller-paul/21832.html ]
E-3-----3-3-3-3---3---------3---3---3--------3---3---3---------3---3---------|
a----------------------------------------------------------------------------|
d-----0-------------0-------2p0-2p0--0-------2p0-2p0---0--2-0--0p2---0--2-0--|
g---0---------2p0-2----2-0----------2----2-0---------2-------------2---------|
b-3-----3-1-0--------0-----------------0-----------------0-------------0-----|
e----------------------------------------------------------------------------|

Verse (same as top tab)

E -3-----3-3-3-3---3-------------3-----3-3-3-6-3------|
a ----------------------------------------------------|
d -----0-------------0------0--------0----------------|
g ---0---------2p0-2----2-0---0----0------------------|
b -3-----3-1-0--------0----------3-----3-1-0-6-3------|
e -----------------------------------------------3----|

Chorus

Repeat 4 times

(C barre chord)

E -------------|
a -3-----------|
d ---5---5-----|
g ------5------|
b -----5-------|
e -------------|

Then

E -3-----3-3-3-3---3---------|
a ---------------------------|
d -----0-------------0-------|
g ---0---------2p0-2----2-0--|
b -3-----3-1-0--------0------|
e ---------------------------|
Cheers, Dan
Related for Into Tomorrow tab