Song name
# A B C D E F G H I J K L M N O P Q R S T U V W X Y Z

Were Not Friends Anymore - Revised tab

eb|-------------11----------------------16----------------------------------|
Bb|-9----9----------9--------14-13------------------------------------------|
Gb|---10---10----------10-----------15-------(x3)---------------------------|
Db|-------------------------------------------------------------------------|
Ab|-------------------------------------------------------------------------|
Db|-------------------------------------------------------------------------|
.. right after the third time played, play what's below

e|--15--13--15--13--16--15--13--18--16--15--23--|
B|----------------------------------------------|
G|----------------------------------------------|then repeat all once more
D|----------------------------------------------|
A|----------------------------------------------|
E|----------------------------------------------|

..and thats it...any questions? email me at guitarsavage30@aim.com..thanx and enjoy
Tap to rate this tab
# A B C D E F G H I J K L M N O P Q R S T U V W X Y Z