Song name
# A B C D E F G H I J K L M N O P Q R S T U V W X Y Z

Wes Carr - You tab

This is the main solo in this song which i couldnt seem to find tabs anywhere so here it 
is finally finished!!! my first tab ever please rate and enjoy :)




e----------------------------------------------------------------------------|
B------------------------3-5-5-3----4s--10-10--10--10--10--10--11b-11b-11----|
G----4s----7-7s--4-2---4---------4--5s--11---11--11--11--11--11--------------|
D----4s----7-7s--4---4-------------------------------------------------------|
A----------------------------------------------------------------------------|
E----------------------------------------------------------------------------|

e---------------------------------------------------------------------------|
B-----------------------0-3-5-5-3---9s--11-11-11-11-------------------------|
G----4s----7-7s--4-2---4---------4--9s--11-11-11-11----4s-7s-4s-7s-4--------|
D----4s----7-7s--4---4--------------9s--11-11-11-11----4s-7s-4s-7s-4--------|
A---------------------------------------------------------------------------|
E---------------------------------------------------------------------------|
Tap to rate this tab
# A B C D E F G H I J K L M N O P Q R S T U V W X Y Z