Song name
# A B C D E F G H I J K L M N O P Q R S T U V W X Y Z

Wes Jeans - Move On tab

Band: Wes Jeans
Song: Move On

Tuning: D-Drop.


TAB by: vanjatadic@gmx.com / www.myspace.com/vanjainstrumental

10.01.2011



D-----------------------------------------------------------|
A-----------------------------------------------------------|
D-12/-------------------------------------------------------|


D-----------------------------------------------------------|
A---3-4-5----3-4-5-3-4-5----3-4-5---------3--5--5--3--0-----|
D-0--------0--------------0---------0-0---3--5--5--3--0-----|
                                   [P.M.]            [GUITAR 2 LET RING]
                                                     [ONLY INTRO...    ]


D-----------------------------------------------------------|
A-3-4-5--5-5-5--3-------------------------------------------|
D-3-4-5--5-5-5--3-------------------------------------------|
               [AT THE END OF THE RIFF]

D-----------------------------------------------------------|
A---3-4-5----3-4-5-3-4-5----3-4-5----3-4-5-3-4-5------------|
D-0--------0--------------0--------0------------------------|


D-----------------------------------------------------------|
A-3-4-5--5-5-5--4-4--4-4-4--3-3--3-3-3----------------------|
D-3-4-5--5-5-5--4-4--4-4-4--3-3--3-3-3----------------------|


D------------------------------------------------------------|
A---3-4-5----3-4-5-3-4-5----3-4-5----3-4-5-3-4-5-------------|
D-0--------0--------------0--------0-------------------------|


D------------------------------------------------------------|
A-3-4-5--5-5-5--7-7--7-7-7--8-8-8-----10-10-10------11-11-11-|
D-3-4-5--5-5-5--7-7--7-7-7--8 8-8-----10-10-10------11-11-11-|
                                 ...          ...           ...

D-----------------------------------------------------------|
A---3-4-5----3-4-5-3-4-5----3-4-5---------3--5--5--3--------|
D-0--------0--------------0---------0-0---3--5--5--3--------|
                                   [P.M.]

D------------------------------------------------------------|
A-3-4-5--5-5-5--3--------------------------------------------|
D-3-4-5--5-5-5--3--------------------------------------------|
               [AT THE END OF THE RIFF]


D------------------------------------------------------------|
A---3-4-5----3-4-5-3-4-5----3-4-5----3-4-5-3-4-5-------------|
D-0--------0--------------0--------0-------------------------|


D------------------------------------------------------------|
A-3-4-5--5-5-5--4-4--4-4-4--3-3--3-3-3-----------------------|
D-3-4-5--5-5-5--4-4--4-4-4--3-3--3-3-3-----------------------|


D------------------------------------------------------------|
A---3-4-5----3-4-5-3-4-5----3-4-5----3-4-5-3-4-5-------------|
D-0--------0--------------0--------0-------------------------|


D------------------------------------------------------------|
A-3-4-5--5-5-5--7-7--7-7-7--8-8-8-----10-10-10------11-11-11-|
D-3-4-5--5-5-5--7-7--7-7-7--8 8-8-----10-10-10------11-11-11-|
                                 ...          ...           ...

D----------------------------------------------------------|
A---3-4-5----3-4-5-3-4-5----3-4-5---------3--5--5--3-----0-|
D-0--------0--------------0---------0-0---3--5--5--3-----0-|
                                   [P.M.]                [END...]


SOLO RIFFS

D------------------------------------------------------|
A-12/--------------------------------------------------|
D-12/--------------------------------------------------|

D------------------------------------------------------|
A-2-2--2-2-0--2-2---2-2--2-2-0--22-5-------------------|
D-2-2--2-2-0--2-2---2-2--2-2-0--22-5-------------------|

D------------------------------------------------------|
A-2-2--2-2-0--2-2---2-2--2-2-0--22-1-------------------|
D-2-2--2-2-0--2-2---2-2--2-2-0--22-1-------------------|


D------------------------------------------------------|
A-0-0--0-0-0--0-0---0-0--0-0-0--00-3-------------------|
D-0-0--0-0-0--0-0---0-0--0-0-0--00-3-------------------|

D------------------------------------------------------|
A-0-0--0-0-0--0-0---0-0--0-0-0--00-2-------------------|
D-0-0--0-0-0--0-0---0-0--0-0-0--00-2-------------------|

D------------------------------------------------------|
A-2-2--2-2-0--2-2---2-2--2-2-0--22-5-------------------|
D-2-2--2-2-0--2-2---2-2--2-2-0--22-5-------------------|

D------------------------------------------------------|
A-2-2--2-2-0--2-2---2-2--2-2-0--22-1-------------------|
D-2-2--2-2-0--2-2---2-2--2-2-0--22-1-------------------|

D------------------------------------------------------|
A-0----------------------------------------------------|
D-0----------------------------------------------------|


OUTRO SOLO RIFF

D------------------------------------------------------|
A------------------------------------------------------|
D-12/--------------------------------------------------|

D------------------------------------------------------|
A---3-4-5----3-4-5-3-4-5----3-4-5---------3--5--5--3---|
D-0--------0--------------0---------0-0---3--5--5--3---|
                                   [P.M.]

http://www.wesjeans.com/
Tap to rate this tab
# A B C D E F G H I J K L M N O P Q R S T U V W X Y Z