Guitaretab - guitar tabs
Song name
# A B C D E F G H I J K L M N O P Q R S T U V W X Y Z

Wet Wet Wet - Love Is All Around tab

Love is all around  Wet Wet Wet
Danny boy

Intro:
e--------------------------------1---|
b--------------------------------1---|
g---2-------1/2--------------2-------|
d---3-----------3--------------------|
a---3--------------------------------|
e---1-------------------(1)----------|


Verses:
e---------------------------------------------|
b----3-1---1----------/4-4-4--3--1-1---1/3----|
g--------3----0-------------------------------|
d---------------------------------------------|
a--1---------------3--------------------------|
e---------------------------------------------|


e-------------------------------------------|
b---3-1---1---------/4-4-4---3--1-----------|
g-------3----0---------------------3-2------|
d----------------------------------------3--|
a---------------3---------------------------|
e-------------------------------------------|

[ Tab from: http://www.guitaretab.com/w/wet-wet-wet/20678.html ]
Bb               Cm
I feel it in my fingers
Eb          F     Bb  Cm  Eb  F
I feel it in my toes
Bb            Cm
Love is all around me
Eb            F       Bb  Cm  Eb  F
And so the feeling grows
Bb                   Cm
Its written on the wind
Eb           F    Bb  Cm  Eb  F
Its everywhere I go, oh yes it is
Bb                Cm
So if you really love me
Eb            F      Bb  Cm  Eb  F
Come on and let it show

e------10------8------6------4----------------|
b---------------------------------------------|
g--/7------5------3------1--------------------|
d---------------------------------------------|
a---------------------------------------------|
e---------------------------------------------|


Eb                    Cm
You know I love you, I always will
Eb
My minds made up by the
Bb
Way that I feel
Eb
Theres no beginning,
Cm
Therell be no end
Cm                  F
cause on my love you can depend

I see your face before me
As I lay on my bed
I kinda get to thinking
Of all the things you said, oh yes I did
You gave your promise to me and i
Gave mine to you
I need someone beside me
In everything I do, oh yes I do
You know I love you, I always will,
My minds made up by the
Way that I feel
Theres no beginning,
Therell be no end
cause on my love you can depend
Got to keep it moving
Oh its written in the wind
Oh everywhere I go, yeah, oh well
So if you really love me, love me, love me
Come on and let it show
Come on and let it show
Come on and let it
Come on and let it (come and let it show, baby)
Come on, come on, come on let it show baby
Come on and let it show
Come on and let it show, baby
Come on and let it show


Enjoy!
fidan.kosumi@gmail.com
Related for Love Is All Around tab