Song name
# A B C D E F G H I J K L M N O P Q R S T U V W X Y Z

Whigfield - Close To You tab

I just wanna be close to you.

e -----------------7--5-------------|
B --3--5--7-7-7-7-------------------|
G ----------------------------------|
D ----------------------------------|
A ----------------------------------|
E ----------------------------------|

Coz I understand the strength of your hand.

e --5-5--3--2--3--5-5--3--2--3------|
B ----------------------------------|
G ----------------------------------|
D ----------------------------------|
A ----------------------------------|
E ----------------------------------|

Oh, the love that you put me through.

e --5--------------7--5-------------|
B -----5--7-7-7-7-------------------|
G ----------------------------------|
D ----------------------------------|
A ----------------------------------|
E ----------------------------------|

You're more than a friend, so love me again.

e --5-5--3--2--3--5-5--3--2--3------|
B ----------------------------------|
G ----------------------------------|
D ----------------------------------|
A ----------------------------------|
E ----------------------------------|
Tap to rate this tab
# A B C D E F G H I J K L M N O P Q R S T U V W X Y Z