Song name
# A B C D E F G H I J K L M N O P Q R S T U V W X Y Z

White Antelope - Crayon Angels tab

                                  ~~~~~~~~~~~~~~~~~~~~~~~~~~~~~~~~~~~~~~~~
                                               Crayon Angels     
                                              White Antelope
                                              
                                  ~~~~~~~~~~~~~~~~~~~~~~~~~~~~~~~~~~~~~~~~
Tabbed by: Connor O.
Tuning: Standard
YT link: https://www.youtube.com/watch?v=enNqBKBXmHc



A Robin Pecknold rendition of Judee Sill's work. 

Pretty straight-forward. All of the verses are played pretty much exactly
the same way and the intro and solo are very similar.

Comment or message any ideas or corrections. Please rate my tab. If you've got
problems with the tab, I'd encourage you to contact me with those problems so I
can fix the tab or provide advice for playing. Don't just give me a poor rating
and not give me any feedback. The idea is for us all to work together to create
a perfect finished product. This tab just represents the best I can do. It's 
definitely up for peer review.



Key:
where # represents a fret number

#h# - hammer
#p# - pull
/ \ - slides, up and down respectively.
(#) - optional note. just shows timing, not actually played.



Intro:


  0:15
    
e|---------------------------------------------------------------------|
B|---------0-------0---------1-----0---------1-----0---------1-----0---|
G|-------------------------------------0-------------------------------|
D|-----------------------0h2---2---------0h2---2---------0h2---2-------|
A|---------------------------------------------------------------------|
E|-3--(3)--3--(3)--3---3--(3)-(3)--3---3--(3)-(3)--3---3--(3)-(3)--3---|


  0:20

e|-------------------2-------2-----------------------------------------|
B|-----------------------------------3---------1-----1-----1-----1-----|
G|-----------------2-------0-------2-------0---2-----------2-----------|
D|---0-----0---0--(0)--0h2(0)------------------2---2---2---2---2-------|
A|-----------------------------0---0---0h2-----0--(0)--0---0--(0)------|
E|-3---3-----------------------------------------------------------0---|
                

  0:26

e|---------------------------------------------------------------------|
B|---------0---------1-----0---------1-----0---------1-----0-----------|
G|---------------------------------------------------------------------|
D|---------------0h2---2---------0h2---2---------0h2---2---------0-----|
A|---------------------------------------------------------------------|
E|-2---3---3---3--(3)-(3)--3---3--(3)-(3)--3---3--(3)-(3)--3---3---3---|



Verse 1:


  0:32
             Crayon Angels songs are slightly out of tune
e|-----------------2-------2-------------------------------------------|
B|-----0-------0-------3-------1--------1---0--------------------------|
G|---------0---------2-------2-----0------------0----------------------|
D|-------0-------0-0-----0-------2--------2---0------------------------|
A|-----------------------------3------3--------------------------------|
E|-2---0-----3------------------------------3-----3--------------------|
        {   G    }{     D     }{     C    }{  G  }

  0:37
             But I'm sure I'm not to blame
e|-----------------2-------2-------------------------------------------|
B|-----0-------0-------3-------1--------1---0-------0------------------|
G|---------0---------2-------2-----0------------0----------------------|
D|-------0-------0-0-----0-------2--------2---0------------------------|
A|-----------------------------3------3--------------------------------|
E|-2---0-----3------------------------------3-----3--------------------|
        {   G    }{     D     }{     C    }{  G  }


  0:42
             Nothing's.....                 So I sit here
e|-----------------2-------2-------------------------------------------|
B|-----0-------0-------3-------1--------1---0-------0------------------|
G|---------0---------2-------2-----0------------0----------------------|
D|-------0-------0-0-----0-------2--------2---0-------0----------------|
A|-----------------------------3------3--------------------------------|
E|-2---0-----3------------------------------3-----3--------------------|
        {   G    }{     D     }{     C    }{  G  }

  0:48
   waitin' for god           and a train
e|---------------------------------------------------------------------|
B|-------------2-----------0-1---------1-----1---------1-----1---------|
G|-------------2---------0---------------------------------------------|
D|-----0---2---2-------2-----------0h2---0---------0h2---0-------------|
A|-2-------------------------------------------------------------------|
E|---------------------------3---3--(3)-(3)--3---3--(3)-(3)--3---------|


  0:54
                   To the astral
e|---------------------------------------------------------------------|
B|-------1-----1-------------------------------------------------------|
G|---------------------------------------------------------------------|
D|---0h2---0-----------------------------------------------------------|
A|---------------------------------------------------------------------|
E|-3--(3)-(3)--3--(3)-(3)-(3)------------------------------------------|


  0:57
   plane
e|---------------------------------------------------------------------|
B|-0---------1-----0---------1-----0---------1-----0-------------------|
G|---------------------------------------------------------------------|
D|-------0h2---2---------0h2---2---------0h2---2---------0-------------|
A|---------------------------------------------------------------------|
E|-3---3--(3)-(3)--3---3--(3)-(3)--3---3--(3)-(3)--3---3---3-----------|



Verse 2:


  1:01
             Magic rings I've made have turned my finger green
e|-----------------2-------2-------------------------------------------|
B|-----0-------0-------3-------1--------1---0--------------------------|
G|---------0---------2-------2-----0------------0----------------------|
D|-------0-------0-0-----0-------2--------2---0------------------------|
A|-----------------------------3------3--------------------------------|
E|-2---0-----3------------------------------3-----3--------------------|
        {   G    }{     D     }{     C    }{  G  }

  1:07
             And my mystic roses died
e|-----------------2-------2-------------------------------------------|
B|-----0-------0-------3-------1--------1---0-------0------------------|
G|---------0---------2-------2-----0------------0----------------------|
D|-------0-------0-0-----0-------2--------2---0------------------------|
A|-----------------------------3------3--------------------------------|
E|-2---0-----3------------------------------3-----3--------------------|
        {   G    }{     D     }{     C    }{  G  }

  1:12
             Guess reality is not as it seems so I sit here      
e|-----------------2-------2-------------------------------------------|
B|-----0-------0-------3-------1--------1---0-------0------------------|
G|---------0---------2-------2-----0------------0----------------------|
D|-------0-------0-0-----0-------2--------2---0-------0----------------|
A|-----------------------------3------3--------------------------------|
E|-2---0-----3------------------------------3-----3--------------------|
        {   G    }{     D     }{     C    }{  G  }

  1:18
   waiting for truth            and a ride
e|---------------------------------------------------------------------|
B|-------------2-----------0-1---------1-----1---------1-----1---------|
G|-------------2---------0---------------------------------------------|
D|-----0---2---2-------2-----------0h2---0---------0h2---0-------------|
A|-2-------------------------------------------------------------------|
E|---------------------------3---3--(3)-(3)--3---3--(3)-(3)--3---------|


  1:24
                   to the other        
e|---------------------------------------------------------------------|
B|-------1-----1-------------------------------------------------------|
G|---------------------------------------------------------------------|
D|---0h2---0-----------------------------------------------------------|
A|---------------------------------------------------------------------|
E|-3--(3)-(3)--3--(3)-(3)-(3)------------------------------------------|


  1:27
   side
e|---------------------------------------------------------------------|
B|-0---------1-----0---------1-----0---------1-----0-------------------|
G|---------------------------------------------------------------------|
D|-------0h2---2---------0h2---2---------0h2---2-----------------------|
A|---------------------------------------------------------------------|
E|-3---3--(3)-(3)--3---3--(3)-(3)--3---3--(3)-(3)--3-------------------|



Solo:


  1:30
                       Baaaahhh                                bada da 
e|-------------------2-------2-----------------------------------------|
B|-----------------------------------3---------1-----1-----1-----1-----|
G|-----------------2-------0-------2-------0---2-----------2-----------|
D|---0---------0--(0)--0h2(0)------------------2---2---2---2---2-------|
A|-----2---3-------------------0-------0h2-----0--(0)--0---0--(0)------|
E|-3---------------------------------------------------------------0---|


  1:36
   da  da  da
e|---------------------------------------------------------------------|
B|---------0---------1-----0---------1-----0---------1-----0-----------|
G|---------------------------------------------------------------------|
D|---------------0h2---2---------0h2---2---------0h2---2---------------|
A|---------------------------------------------------------------------|
E|-2---3---3---3--(3)-(3)--3---3--(3)-(3)--3---3--(3)-(3)--3-----------|


  1:41
                       Baaaahhh                                bada
e|-------------------2-------2-----------------------------------------|
B|-----------------------------------3---------1-----1-----1-----1-----|
G|-----------------2-------0-------2-------0---2-----------2-----------|
D|---0---------0--(0)--0h2(0)------------------2---2---2---2---2-------|
A|-----2---3-------------------0-------0h2-----0--(0)--0---0--(0)------|
E|-3---------------------------------------------------------------0---|


  1:46
   da  da  da
e|---------------------------------------------------------------------|
B|---------0---------1-----0---------1-----0---------1-----0-----------|
G|---------------------------------------------------------------------|
D|---------------0h2---2---------0h2---2---------0h2---2---------------|
A|---------------------------------------------------------------------|
E|-2---3---3---3--(3)-(3)--3---3--(3)-(3)--3---3--(3)-(3)--3-----------|
 


Verse 3: (Played the same way)


Phony prophits stole the only light I knew
And the darkness softly screamed
Holy visions disappear from my view
but the angels come back and laugh in my dreams
I wonder what it means
Tap to rate this tab
# A B C D E F G H I J K L M N O P Q R S T U V W X Y Z