White Lies - Peace And Quiet tab

----------------------------------------------------------------------------
			 PEACE & QUIET - White Lies
----------------------------------------------------------------------------
Tabbed by: Ross Adamson


Tuning: Standard

Intro/Verse

e|------------------------------------------------|
B|------------------------------------------------|
G|--5--7--9--10--14----12----10--9--7-------------|
D|------------------------------------------------|
A|------------------------------------------------|
E|------------------------------------------------|

Chorus

e|------------------------------------------------|
B|------------------------------------------------|
G|--7--7----14--12--------------------------------|
D|--7--7----14--12--------------------------------|
A|--5--5----12--10--------------------------------|
E|------------------------------------------------|

Bridge

e|-------------------------------------------------|
B|-------------------------------------------------|
G|-----2-----5-----9-----7--5--7--5--4-------------|
D|--3-----5-----7-----7----------------------------|
A|-------------------------------------------------|
E|-------------------------------------------------|
Tap to rate this tab
 
# A B C D E F G H I J K L M N O P Q R S T U V W X Y Z