Song name
# A B C D E F G H I J K L M N O P Q R S T U V W X Y Z

White Lies - Holy Ghost tab

Guitar tab of Holy Ghost (tabbed by ear, can't be sure if it's correct)

[Intro/Pre-verse]


                                       Q.     H        E   
E||-------|-------|-------|-------||----------------------|
B||-------|-------|-------|-------||----------------------|
G||-------|-------|-------|-------||*--8------7--------L--|
D||-------|-------|-------|-------||*--8------7--------L--|
A||-------|-------|-------|-------||---6------5--------L--|
E||-------|-------|-------|-------||----------------------|


  H        Q.     E     H.           E  E     E  E  H        E  E            
---------------------|---------------------|------------------------||------
---------------------|---------------------|------------------------||------
--L--------8------5--|--L------------L--7--|--8--7-----------------*||*-----
--L--------8------5--|--L------------L--7--|--8--7--8--------L--5--*||*-----
--L--------6------3--|--L------------L--5--|--6--5--8--------L--5---||------
---------------------|---------------------|--------6--------L--3---||------


-----|-----|------||------|-----|-----|------||-----|
-----|-----|------||------|-----|-----|------||-----|
-----|-----|-----*||*-----|-----|-----|-----*||-----|
-----|-----|-----*||*-----|-----|-----|-----*||-----|
-----|-----|------||------|-----|-----|------||-----|
-----|-----|------||------|-----|-----|------||-----|


    E  E  E  E  E  E  E  E     E  E  E  E  E  E  E  E   
|---------------------------|--------------------------|
|---------------------------|--------------------------|
|*--5--5--5--5--5--5--5--5--|--5--5--5--5--5--5--5--5--|
|*--5--5--5--5--5--5--5--5--|--5--5--5--5--5--5--5--5--|
|---3--3--3--3--3--3--3--3--|--3--3--3--3--3--3--3--3--|
|---------------------------|--------------------------|


  E  E  E  E  E  E  E  E     E  E  E  E  E  E  E  E   
--------------------------|--------------------------|
--------------------------|--------------------------|
--5--5--5--5--5--5--5--5--|--5--5--5--5--5--5--5--5--|
--5--5--5--5--5--5--5--5--|--5--5--5--5--5--5--5--5--|
--3--3--3--3--3--3--3--3--|--3--3--3--3--3--3--3--3--|
--------------------------|--------------------------|


  E  E  E  E  E  E  E  E     E  E  E  E  E  E  E  E   
--------------------------|--------------------------|
--------------------------|--------------------------|
--3--3--3--3--3--3--3--3--|--3--3--3--3--3--3--3--3--|
--3--3--3--3--3--3--3--3--|--3--3--3--3--3--3--3--3--|
--1--1--1--1--1--1--1--1--|--1--1--1--1--1--1--1--1--|
--------------------------|--------------------------|


  E  E  E  E  E  E  E  E     E  E  E  E  E  E  E  E     
--------------------------|---------------------------||
--------------------------|---------------------------||
--3--3--3--3--3--3--3--3--|--3--3--3--3--3--3--3--3--*||
--3--3--3--3--3--3--3--3--|--3--3--3--3--3--3--3--3--*||
--1--1--1--1--1--1--1--1--|--1--1--1--1--1--1--1--1---||
--------------------------|---------------------------||


  E.  E.  E.  E.  E.  S    E.  E.  E.  E.  E.  S      Q.     H        E   
------------------------|------------------------||----------------------|
------------------------|------------------------||----------------------|
------------------------|------------------------||*--8------7--------L--|
------------------------|------------------------||*--8------7--------L--|
--3---3---3---3---3---L-|--3---3---3---3---3---L-||---6------5--------L--|
------------------------|------------------------||----------------------|


  H        Q.     E     H.           E  E     E  E  H        E  E            
---------------------|---------------------|------------------------||------
---------------------|---------------------|------------------------||------
--L--------8------5--|--L------------L--7--|--8--7-----------------*||*-----
--L--------8------5--|--L------------L--7--|--8--7--8--------L--5--*||*-----
--L--------6------3--|--L------------L--5--|--6--5--8--------L--5---||------
---------------------|---------------------|--------6--------L--3---||------


-----|-----|------||------|-----|-----|------||-----|
-----|-----|------||------|-----|-----|------||-----|
-----|-----|-----*||*-----|-----|-----|-----*||-----|
-----|-----|-----*||*-----|-----|-----|-----*||-----|
-----|-----|------||------|-----|-----|------||-----|
-----|-----|------||------|-----|-----|------||-----|


    E  E  E  E  E  E  E  E     E  E  E  E  E  E  E  E   
|---------------------------|--------------------------|
|---------------------------|--------------------------|
|*--5--5--5--5--5--5--5--5--|--5--5--5--5--5--5--5--5--|
|*--5--5--5--5--5--5--5--5--|--5--5--5--5--5--5--5--5--|
|---3--3--3--3--3--3--3--3--|--3--3--3--3--3--3--3--3--|
|---------------------------|--------------------------|


  E  E  E  E  E  E  E  E     E  E  E  E  E  E  E  E   
--------------------------|--------------------------|
--------------------------|--------------------------|
--5--5--5--5--5--5--5--5--|--5--5--5--5--5--5--5--5--|
--5--5--5--5--5--5--5--5--|--5--5--5--5--5--5--5--5--|
--3--3--3--3--3--3--3--3--|--3--3--3--3--3--3--3--3--|
--------------------------|--------------------------|


  E  E  E  E  E  E  E  E     E  E  E  E  E  E  E  E   
--------------------------|--------------------------|
--------------------------|--------------------------|
--3--3--3--3--3--3--3--3--|--3--3--3--3--3--3--3--3--|
--3--3--3--3--3--3--3--3--|--3--3--3--3--3--3--3--3--|
--1--1--1--1--1--1--1--1--|--1--1--1--1--1--1--1--1--|
--------------------------|--------------------------|


  E  E  E  E  E  E  E  E     E  E  E  E  E  E  E  E     
--------------------------|---------------------------||
--------------------------|---------------------------||
--3--3--3--3--3--3--3--3--|--3--3--3--3--3--3--3--3--*||
--3--3--3--3--3--3--3--3--|--3--3--3--3--3--3--3--3--*||
--1--1--1--1--1--1--1--1--|--1--1--1--1--1--1--1--1---||
--------------------------|---------------------------||


   E  E  E  E  E  E  E  E     E  E  E  E  E  E  E  E   
---------------------------|--------------------------|
---------------------------|--------------------------|
*--5--5--5--5--5--5--5--5--|--5--5--5--5--5--5--5--5--|
*--5--5--5--5--5--5--5--5--|--5--5--5--5--5--5--5--5--|
---3--3--3--3--3--3--3--3--|--3--3--3--3--3--3--3--3--|
---------------------------|--------------------------|


  E  E  E  E  E  E  E  E     E  E  E  E  E  E  E  E   
--------------------------|--------------------------|
--------------------------|--------------------------|
--5--5--5--5--5--5--5--5--|--5--5--5--5--5--5--5--5--|
--5--5--5--5--5--5--5--5--|--5--5--5--5--5--5--5--5--|
--3--3--3--3--3--3--3--3--|--3--3--3--3--3--3--3--3--|
--------------------------|--------------------------|


  E  E  E  E  E  E  E  E     E  E  E  E  E  E  E  E   
--------------------------|--------------------------|
--------------------------|--------------------------|
--3--3--3--3--3--3--3--3--|--3--3--3--3--3--3--3--3--|
--3--3--3--3--3--3--3--3--|--3--3--3--3--3--3--3--3--|
--1--1--1--1--1--1--1--1--|--1--1--1--1--1--1--1--1--|
--------------------------|--------------------------|


  E  E  E  E  E  E  E  E     E  E  E  E  E  E  E  E     
--------------------------|---------------------------||
--------------------------|---------------------------||
--3--3--3--3--3--3--3--3--|--3--3--3--3--3--3--3--3--*||
--3--3--3--3--3--3--3--3--|--3--3--3--3--3--3--3--3--*||
--1--1--1--1--1--1--1--1--|--1--1--1--1--1--1--1--1---||
--------------------------|---------------------------||


   E  E  E  E  E  E  E  E     E  E  E  E  E  E  E  E   
---------------------------|--------------------------|
---------------------------|--------------------------|
*--8--8--8--8--8--8--8--8--|--8--8--8--8--8--8--8--8--|
*--8--8--8--8--8--8--8--8--|--8--8--8--8--8--8--8--8--|
---6--6--6--6--6--6--6--6--|--6--6--6--6--6--6--6--6--|
---6--6--6--6--6--6--6--6--|--6--6--6--6--6--6--6--6--|


   E   E   E   E   E   E   E   E      E   E   E   E   E   E   E   E   
----------------------------------|----------------------------------|
----------------------------------|----------------------------------|
--10--10--10--10--10--10--10--10--|--10--10--10--10--10--10--10--10--|
--10--10--10--10--10--10--10--10--|--10--10--10--10--10--10--10--10--|
---8---8---8---8---8---8---8---8--|---8---8---8---8---8---8---8---8--|
---8---8---8---8---8---8---8---8--|---8---8---8---8---8---8---8---8--|


   E   E   E   E   E   E   E   E      E   E   E   E   E   E   E   E   
----------------------------------|----------------------------------|
----------------------------------|----------------------------------|
--12--12--12--12--12--12--12--12--|--12--12--12--12--12--12--12--12--|
--12--12--12--12--12--12--12--12--|--12--12--12--12--12--12--12--12--|
--10--10--10--10--10--10--10--10--|--10--10--10--10--10--10--10--10--|
--10--10--10--10--10--10--10--10--|--10--10--10--10--10--10--10--10--|


   E   E   E   E   E   E   E   E      E   E   E   E   E   E   E   E     
----------------------------------|-----------------------------------||
----------------------------------|-----------------------------------||
--12--12--12--12--12--12--12--12--|--12--12--12--12--12--12--12--12--*||
--12--12--12--12--12--12--12--12--|--12--12--12--12--12--12--12--12--*||
--10--10--10--10--10--10--10--10--|--10--10--10--10--10--10--10--10---||
--10--10--10--10--10--10--10--10--|--10--10--10--10--10--10--10--10---||


   E  E  E  E  E  E  E  E     E  E  E  E  E  E  E  E   
---------------------------|--------------------------|
---------------------------|--------------------------|
*--8--8--8--8--8--8--8--8--|--8--8--8--8--8--8--8--8--|
*--8--8--8--8--8--8--8--8--|--8--8--8--8--8--8--8--8--|
---6--6--6--6--6--6--6--6--|--6--6--6--6--6--6--6--6--|
---6--6--6--6--6--6--6--6--|--6--6--6--6--6--6--6--6--|


   E   E   E   E   E   E   E   E      E   E   E   E   E   E   E   E   
----------------------------------|----------------------------------|
----------------------------------|----------------------------------|
--10--10--10--10--10--10--10--10--|--10--10--10--10--10--10--10--10--|
--10--10--10--10--10--10--10--10--|--10--10--10--10--10--10--10--10--|
---8---8---8---8---8---8---8---8--|---8---8---8---8---8---8---8---8--|
---8---8---8---8---8---8---8---8--|---8---8---8---8---8---8---8---8--|


   E   E   E   E   E   E   E   E      E   E   E   E   E   E   E   E   
----------------------------------|----------------------------------|
----------------------------------|----------------------------------|
--12--12--12--12--12--12--12--12--|--12--12--12--12--12--12--12--12--|
--12--12--12--12--12--12--12--12--|--12--12--12--12--12--12--12--12--|
--10--10--10--10--10--10--10--10--|--10--10--10--10--10--10--10--10--|
--10--10--10--10--10--10--10--10--|--10--10--10--10--10--10--10--10--|


   E   E   E   E   E   E   E   E      E   E   E   E   E   E   E   E     
----------------------------------|-----------------------------------||
----------------------------------|-----------------------------------||
--12--12--12--12--12--12--12--12--|--12--12--12--12--12--12--12--12--*||
--12--12--12--12--12--12--12--12--|--12--12--12--12--12--12--12--12--*||
--10--10--10--10--10--10--10--10--|--10--10--10--10--10--10--10--10---||
--10--10--10--10--10--10--10--10--|--10--10--10--10--10--10--10--10---||


   E  E  E  E  E  E  E  E     E  E  E  E  E  E  E  E   
---------------------------|--------------------------|
---------------------------|--------------------------|
*--8--8--8--8--8--8--8--8--|--8--8--8--8--8--8--8--8--|
*--8--8--8--8--8--8--8--8--|--8--8--8--8--8--8--8--8--|
---6--6--6--6--6--6--6--6--|--6--6--6--6--6--6--6--6--|
---6--6--6--6--6--6--6--6--|--6--6--6--6--6--6--6--6--|


   E   E   E   E   E   E   E   E      E   E   E   E   E   E   E   E   
----------------------------------|----------------------------------|
----------------------------------|----------------------------------|
--10--10--10--10--10--10--10--10--|--10--10--10--10--10--10--10--10--|
--10--10--10--10--10--10--10--10--|--10--10--10--10--10--10--10--10--|
---8---8---8---8---8---8---8---8--|---8---8---8---8---8---8---8---8--|
---8---8---8---8---8---8---8---8--|---8---8---8---8---8---8---8---8--|


   E   E   E   E   E   E   E   E      E   E   E   E   E   E   E   E   
----------------------------------|----------------------------------|
----------------------------------|----------------------------------|
--12--12--12--12--12--12--12--12--|--12--12--12--12--12--12--12--12--|
--12--12--12--12--12--12--12--12--|--12--12--12--12--12--12--12--12--|
--10--10--10--10--10--10--10--10--|--10--10--10--10--10--10--10--10--|
--10--10--10--10--10--10--10--10--|--10--10--10--10--10--10--10--10--|


   E   E   E   E   E   E   E   E      E   E   E   E   E   E   E   E     
----------------------------------|-----------------------------------||
----------------------------------|-----------------------------------||
--12--12--12--12--12--12--12--12--|--12--12--12--12--12--12--12--12--*||
--12--12--12--12--12--12--12--12--|--12--12--12--12--12--12--12--12--*||
--10--10--10--10--10--10--10--10--|--10--10--10--10--10--10--10--10---||
--10--10--10--10--10--10--10--10--|--10--10--10--10--10--10--10--10---||


  W                   W                   W                   W                 
-------------------|-------------------|-------------------|---------------|
-------------------|-------------------|------------------8----------------|
--L----------------|--L----------------|--L---------------8----------------|
--L----------------|--L----------------|--L--6-----------------------------|
--L----------------|--L----------------|--L--------------------------------|
--6----------------|--L----------------|--L----------------|--L------------|


  W                   W                        
-------------------|-------------------|-----||
-------------------|-------------------|-----||
--L----------------|-------------------|-----||
--L----------------|--L----------------|-----||
--L----------------|--L----------------|-----||
--L----------------|--L----------------|-----||




Duration Legend
---------------
W - whole
H - half
Q - quarter
E - 8th
S - 16th
T - 32nd
X - 64th
. - note dotted
|-n-|  - n-tuplets


Tablature Legend
----------------
L - tied note
x - dead note
g - grace note
(n) - ghost note
> - accentuded note
NH - natural harmonic
AH - artificial harmonic
TH - tapped harmonic
SH - semi harmonic
PH - pitch harmonic
h - hammer on
p - pull off
b - bend
br - bendRelease
pb - preBend
pbr - preBendRelease
brb - bendReleaseBend
\n/ - tremolo bar dip
\n - tremolo bar dive
-/n - tremolo bar Release up
/n\ - tremolo bar inverted dip
/n - tremolo bar return
-\n - tremolo bar Release down
S - shift slide
s - legato slide
/ -  slide into from below or out of upwards
\ -  slide into from above or out of downwards
~ - vibrato
W - wide vibrato
tr - trill
TP - tremolo picking
T - tapping
S - slap
P - pop
< - fade in
^ - brush up
v - brush down
Tap to rate this tab
 
# A B C D E F G H I J K L M N O P Q R S T U V W X Y Z