Song name
# A B C D E F G H I J K L M N O P Q R S T U V W X Y Z

White Lion - Lonely Nights tab

Acoustic Guitar Part:

E-------------------------------------------------------------------------|
B-------------------------------------------------------------------------|
G-------------------------------------------------------------------------|
D---2-4-5-------------5--7--9--------------9--7--5--4-------4---5----7----|
A--2------------------7--9--10-------------10-9--7--5-----5---7----9------|
E-0---------0-0-0-0--------------0-0-0-0----------------------------------|

E------------------------------------------------------------|
B------------------------------------------------------------|
G------------------------------------------------------------|
D---2-4-5---------------5--7--9---------------9--7-5---------|
A--2-------------------7---9---10-------------10-9-7---------|
E-0---------0-0-0-0----------------0-0-0-0-------------------|

know he changes to an Electric Guitar.

E-------------------------------------------------------------------------|
B-------------------------------------------------------------------------|
G-2-4-5--------------5--7-9-------------------9--7-5-4------4-----5----7--|
D-2------------------7--9-10------------------10-9-7-5----5----7-----9----|
A-0--------0-0-0-0---------------0-0-0-0----------------------------------|
E-------------------------------------------------------------------------|

E-------------------------------------------------------------|
B-------------------------------------------------------------|
G-2--4-5---------------5--7--9---------------9--7--5----------|
D-2--------------------7--9--10-------------10--9--7----------|
A-0---------0-0-0-0---------------0-0-0-0---------------------|
E-------------------------------------------------------------|

E-----------------------------------------------------------------|
B-----------------------------------------------------------------|
G-----------------------------------------------------------------|
D--------------2--0-----------------------------------------------|
A--------2------------3--2--0-------------------------------------|
E---0-4----4------------------------------------------------------|

And there's the intro have fun:

The little girl standing in the rain on the corner of 42nd street and she's all alone
on the bad side of town. cause there was a little boy that she loved with all her
heart. But he's far with another girl now she's searching for a friend. to hold her
when she cries.

Refrain: In her lonely nights, lonely nights where no one seems to care in her lonely
nights lonely nights. You better beware.

But baby you try and you try but it seems that it doesn't work.cause love is a game
that they play
so baby hold on to your heart
when they tell you that they care
yeah now that you know that the winner
takes what he wants
but she's searching for a friend
just hold her when she cries

in her lonely nights, lonely nights
where no one seems to care
in her lonely nights, lonely nights
you better beware

and somewhere in the night
there's a little cry
a girl who says
hey I wanna die
there's no one here who really cares
but if there's someone here who understands
just someone here who'll try to lend a hand
and bring her home tonight, tonight

in her lonely nights, lonely nights
where no one seems to care
in her lonely nights, lonely nights
you better beware

lonely nights...
Tap to rate this tab
 
# A B C D E F G H I J K L M N O P Q R S T U V W X Y Z