Song name
# A B C D E F G H I J K L M N O P Q R S T U V W X Y Z

White Stripes - Jack The Ripper tab

Help us improve GuitareTab! Take a short survey!
Main Riff:

|----------------------|
|----------------------|
|----------------------|
|----------------------|
|----------------------|
|--00-2-0-3-0-53-------|

Solo:


E-17-19-17-15-17-15-17-19-17-15----------24--24-24-24-24-/24-24-/24~--|
B----------------------------------18---------------------------------|
G---------------------------------------------------------------------|
D---------------------------------------------------------------------|
A---------------------------------------------------------------------|
E---------------------------------------------------------------------|

                                            ^
E-17-19-17-15-15-17-17-19-17-15-17-19-15-17-17-19-17-15-17-17--17-15--|
B---------------------------------------------------------------------|
G---------------------------------------------------------------------|
D---------------------------------------------------------------------|
A---------------------------------------------------------------------|
E---------------------------------------------------------------------|

E-24--24-24-24-24-24-24----24---24--24-24-24-24/12-/24---24--24-------|
B---------------------------------------------------------------------|
G---------------------------------------------------------------------|
D---------------------------------------------------------------------|
A---------------------------------------------------------------------|
E---------------------------------------------------------------------|


E-24-24-24-24-------------19-----------18------------17------------17--|
B----------------------------------------------------------------------|
G----------------------------------------------------------------------|
D------------(23--19-19)----19--19-19-----19--19-19------19-19-19------|
A----------------------------------------------------------------------|
E----------------------------------------------------------------------|

E--------17---------17/0-|
B------------------------|
G------------------------|
D-22-19-----19-19--------|
A------------------------|
E------------------------|

Final Interlude: x 2


E--------------------------------|
B--------------------------------|
G--------------------------------|
D--------------------------------|
A--------------------------------|
E---00-2-0-3-0-5--00-2-0-3-0-5---|

Outro:

E----------------------------|
B----------------------------|
G----------------------------|
D-------------------------4--|
A-------------------------4--|
E---0--0--0--0--000--0--0-2--|
Related for Jack The Ripper tab