Song name
# A B C D E F G H I J K L M N O P Q R S T U V W X Y Z

White Wizzard - Starchild tab

------------------------------------------------------------------
	        STARCHILD by White Wizzard
------------------------------------------------------------------
Tabbed by: thrashmonkey

Tuning: E standard

e|---------------0-------------------------------0---------------|
B|--------3--------3------3---------------3--------3-----3-------|
G|----0-----0--------0------0---0-----0------0-------0-----0---0-|
D|------4-----4--------4------4---------4------4-------4-----4---|
A|---------------------------------------------------------------|
E|-0-------------------------------0-----------------------------|

e|--------2------0-------------------------------0---------------|
B|----------3------3------3---------------3--------3-----3-------|
G|----0-------0------0------0---0-----0------0-------0-----0---0-|
D|------4--------------4------4---------4------4-------4-----4---|
A|-3-------------------------------------------------------------|
E|---------------------------------0-----------------------------|

Pretty simple, this is the main part/verse of the song, I will tab the rest later when I have time
Tap to rate this tab
# A B C D E F G H I J K L M N O P Q R S T U V W X Y Z