Song name
# A B C D E F G H I J K L M N O P Q R S T U V W X Y Z

Whitesnake - Fool For Your Loving tab

Here's the classic anthem tab!

E||---------------------------|-------------------------|---------------------------|
B||---------------------------|--6---6---5--------------|---------------------6---6-|
G||-------------3---5--3------|--5---5---5--------------|-------3---5--3------5---5-|
D||--3--/5------3---5--3------|------------------3--/5--|-------3---5--3------------|
A||--3--/5--------------------|------------------3--/5--|---------------------------|
E||---------------------------|-------------------------|---------------------------|


--------------------------|-------------------------|-----------------------------|
--------------------------|---------6---6---5-------|-----------------------------|
--5----------------3---5--|--3------5---5---5-------|------------3----5--3--------|
--5-----3--/5------3---5--|--3----------------------|--3--/5-----3----5--3--------|
--------3--/5-------------|-------------------------|--3--/5----------------------|
--------------------------|-------------------------|-----------------------------|


                                               
------------------------||
------------------------||
-5--3-------------------||
-------5--3~------------||
------------------------||
------------------------||



Tablature Legend
----------------
L - tied note
x - dead note
g - grace note
(n) - ghost note
> - accentuded note
NH - natural harmonic
AH - artificial harmonic
TH - tapped harmonic
SH - semi harmonic
PH - pitch harmonic
h - hammer on
p - pull off
b - bend
br - bendRelease
pb - preBend
pbr - preBendRelease
brb - bendReleaseBend
\n/ - tremolo bar dip
\n - tremolo bar dive
-/n - tremolo bar Release up
/n\ - tremolo bar inverted dip
/n - tremolo bar return
-\n - tremolo bar Release down
S - shift slide
s - legato slide
/ -  slide into from below or out of upwards
\ -  slide into from above or out of downwards
~ - vibrato
W - wide vibrato
tr - trill
TP - tremolo picking
T - tapping
S - slap
P - pop
< - fade in
^ - brush up
v - brush down
Tap to rate this tab
# A B C D E F G H I J K L M N O P Q R S T U V W X Y Z