Song name
# A B C D E F G H I J K L M N O P Q R S T U V W X Y Z

Whitesnake - Slide It In tab

Here is the solo to Whitesnake's " Slide It In".

This is my first tab, criticism is welcome.

E--------------------------------------------------------------|
B-------13------13----13---------------------------------------|
G---12b----12br----10----9--9br--7-----------7-9-10-7-10b-10~~-|
D----------------------------------10--8--10-------------------|
A--------------------------------------------------------------|
E--------------------------------------------------------------|


E------------------------------------10p8-----8----------------|
B------------------------------------------11---11p10p8--------|
G----------------------7-9-10b--10~~~-------------------10p9p7-|
D---------------7-10-------------------------------------------|
A---10b--10~---------------------------------------------------|
E--------------------------------------------------------------|


E---------------------------12h13-15b-13-15b-15br-13-13h15p12--|
B-----------------10h11h13----------------------------------13-|
G----------9h10h12---------------------------------------------|
D---7h8h10-----------------------------------------------------|
A--------------------------------------------------------------|
E--------------------------------------------------------------|


E---12-------13-12h13p12----12---------------------------------|
B------13-15-------------15---15p13--15------------------------|
G----------------------------------15---15p14p12---------14h17-|
D------------------------------------------------12h14h15------|
A--------------------------------------------------------------|
E--------------------------------------------------------------|

E--------------15-17~-17br-15-17br-18p17p15--15---------------|
B------15h17h18----------------------------18--18p17p15---15--|
G---h18-------------------------------------------------17----|
D-------------------------------------------------------------|
A-------------------------------------------------------------|
E-------------------------------------------------------------|

E-----------------------------------15h17-18b~~17--20b~~------|
B---------------------------15h17h18--------------------------|
G---17p15p14--------14h15h17----------------------------------|
D-----------14h15h17------------------------------------------|
A-------------------------------------------------------------|
E-------------------------------------------------------------|
Tap to rate this tab
 
# A B C D E F G H I J K L M N O P Q R S T U V W X Y Z