Whitesnake - Ready To Rock tab

this is my first tab>>>>i hope u like it
tabbed by: dani hanna (dannyameen@hotmail.com)
produde.4umer.com

the intro:
     Q     Q     Q       Q    Q       Q    Q    Q    Q       Q    Q    Q     
E||-------------------|------------|----------------------|-----------------|
B||---  for this  ----|------------|----------------------|-----------------|
G||--u just hit the --|------------|----------------------|-----------------|
D||-- string once  ---|------------|----------------------|-----------------|
A||-------------------|------------|----------------------|-----------------|
E||--5p----3p----0----|3----3h5----|--9----9----9----9----|--9----9----9----|

     Q     Q     Q       Q    Q       Q    Q    Q    Q       Q    Q    Q     
E||-------------------|------------|----------------------|-----------------|
B||---  for this  ----|------------|----------------------|-----------------|
G||--u just hit the --|------------|----------------------|-----------------|
D||-- string once  ---|------------|----------------------|-----------------|
A||-------------------|------------|----------------------|-----------------|
E||--5p----3p----0----|3----3h5----|--9----9----9----9----|--9----9----9----|


  Q     Q     Q       Q     Q     Q       Q     Q     Q     
-------------------|-------------------|-------------------|-----------
-------------------|-------------------|-------------------|-----------
-------------------|-------------------|-------------------|-----------
-------------------|-------------------|-------------------|-----------
-------------------|-------------------|-------------------|-----------
--5p----3p----0----|--5p----3p----0----|--5p----3p----0----|------3p--0
 

  Q     Q     Q     Q      
-------------------------||
-------------------------||
-------------------------||
-------------------------||
-------------------------||
--3h----5p----3p----0----||




riff :
 play this when he sing (get ready to roll baby)

     Q    Q    Q     Q       Q    Q    Q     Q       Q    Q     
E||-----------------------|-----------------------|------------|
B||-----------------------|-----------------------|------------|
G||-----------------------|-----------------------|------------|
D||-----------------------|-----------------------|------------|
A||-----------------------|-----------------------|------------|
E||--0----0----3p----2----|--0----0----3p----2----|--0----0----|


  Q     Q     Q       Q     Q     Q       Q     Q     
-------------------|-------------------|-------------|
-------------------|-------------------|-------------|
-------------------|-------------------|-------------|
-------------------|-------------------|-------------|
-------------------|-------------------|-------------|
--5p----3p----0----|--5p----3p----0----|--3p----0----|


  Q     Q     Q     Q      
-------------------------||
-------------------------||
-------------------------||
-------------------------||
-------------------------||
--3h----5p----3p----0----||


cool riff :
play this when he sing (gonna loss control)
      Q     E   E   E      E   E   E   E   E   E    
E||--------------------|----------------------------------||
B||--------------------|----------------------------------||
G||--------------------|---------------------------3-----||
D||--------------------|----------------------------------||
A||--14----16--14--14--|--14--14--14--16--14--14----------||
E||--12----12--12--12--|--12--12--12--12--12--12----------||




  Q     Q     Q       Q     Q     Q       Q     Q     
-------------------|-------------------|-------------|
-------------------|-------------------|-------------|
-------------------|-------------------|-------------|
-------------------|-------------------|-------------|
-------------------|-------------------|-------------|
--5p----3p----0----|--5p----3p----0----|--3p----0----|


  Q     Q     Q     Q      
-------------------------||
-------------------------||
-------------------------||
-------------------------||
-------------------------||
--3h----5p----3p----0----||
Tap to rate this tab
 
# A B C D E F G H I J K L M N O P Q R S T U V W X Y Z