Song name
# A B C D E F G H I J K L M N O P Q R S T U V W X Y Z

Whitey - Wrap It Up tab

Tuning is in drop d

(Intro/ Main Riff)

 Guitar 1
e|-----------------------------------|
B|--10-10-9-8-------12-12------------|
G|------------------------12-9-------|X4
D|-----------------------------------|
A|-----------------------------------|
D|-----------------------------------|

Guitar 2
e|---------------------------------|
B|---------------------------------|
G|---------------------------------|X4
D|---------------------------------|
A|---------------------------------|
D|--5-5-6-7-7-7-7--0-0-5-2-2-2-2---|

(Pre-Verse)

Guitar 1
...play this at the end guitar 2's part in the pre-verse
e|--10----7---|
B|--11----8---|
G|--12----9---|
D|--12----9---|
A|--10----7---|
D|------------|

Guitar 2
... listen to the song for rhythm
e|-------------------------------------------------|
B|-------------------------------------------------|
G|-------------------------------------------------|
D|-------------------------------------------------|X4
A|-------------------------------------------------|
E|--5-5-6--7--7--7---0-0-5--2--2--2----------------|

(Verse)

Guitar 2
e|---------------------------------|
B|---------------------------------|
G|---------------------------------|X4
D|---------------------------------|
A|---------------------------------|
D|--5-5-6-7-7-7-7--0-0-5-2-2-2-2---|


Guitar 1
... Like the pre-verse play this the 4th time of guitar 2's part...
e|--10----7---|
B|--11----8---|
G|--12----9---|
D|--12----9---|
A|--10----7---|
D|------------|

Guitar 2
e|-------------------------------------------------|
B|-------------------------------------------------|
G|-------------------------------------------------|
D|-------------------------------------------------|X4
A|-------------------------------------------------|
E|--5-5-6--7--7--7---0-0-5--2--2--2----------------|

 Bass Guitar
... this is played on the 4th time at the end of guitar 2's part.
G|--------------|
D|--------------|
A|--------------|
D|--5h7-5-/2----|

(Pre Chorus)

Guitar 1
e|-----------------------------------|
B|--10-10-9-8-------12-12------------|
G|------------------------12-9-------|X4
D|-----------------------------------|
A|-----------------------------------|
D|-----------------------------------|

Guitar 2
e|---------------------------------|
B|---------------------------------|
G|---------------------------------|X4
D|---------------------------------|
A|---------------------------------|
D|--5-5-6-7-7-7-7--0-0-5-2-2-2-2---|

Bass
G|--------------|
D|--------------|
A|--------------|x3
D|--5h7-5-/2----|

(Chorus)

Bass
G|------------------------|
D|------------------------|
A|------------------------|
D|--7-6-5------5-6-7------|

G|--------------|
D|--------------|
A|--------------|
D|--5h7-5-/2----|

G|------------------------|
D|------------------------|Play the chorus bass line x4
A|------------------------|
D|--5-3-2------2-3-5------|

Guitar 1 plays the verse and Pre-Verse again but this time with added
 guitar 2
e|-----------------------------------------|
B|-----------------------------------------|
G|-----------------------------------------|
D|--5-5-6-7--7^-7^-7^----0-0-5-2-2^-2^-2^--|
A|-----------------------------------------|
D|-----------------------------------------|

e|-----------------------------------------------|
B|--10-10-9-8--8^-8^-8^---12-12------------------|
G|------------------------------12-9--9^-9^-9^---|
D|-----------------------------------------------|
A|-----------------------------------------------|
D|-----------------------------------------------|

Play the Chorus Again

(Outro)

The bass continues playing the chorus line

Guitar 2
Play with reverb
e|------------------------------------------|
B|--12--10---------------8--10--------------|
G|-------------12--9----------------12--9---|
D|------------------------------------------|X3
A|------------------------------------------|
E|------------------------------------------|

e|---------------------------------|
B|--12--10---------------8--10-----|
G|-------------12--9---------------|
D|---------------------------------|
A|---------------------------------|
E|---------------------------------|
Tap to rate this tab
 
# A B C D E F G H I J K L M N O P Q R S T U V W X Y Z