Song name
# A B C D E F G H I J K L M N O P Q R S T U V W X Y Z

Whitley - More Than Life tab

-------------------------------------------------------------------------------
                             More Than Life - Whitley
-------------------------------------------------------------------------------
Tabbed by: Maryse Lapu
E-mail: ryse.lan@gmail.com

Tuning: D Tuning (DGCFAD)
Hey, so I know there are already two other tabs there, but I couldnt help
but feel like theyre not quite right, so I tabbed it too. Ive played this
numerous times and I feel like its almost perfect. (If you want to hear what
it sounds like, I also made a Guitar Pro tab of it.)
Thank you :)

Chords Used:
    Am     
e|-----|
B|--1--|
G|--2--|
D|--2--|
A|--0--|
E|-----|

    F (Played with thumb on 1st fret of E, index on B, middle on G, ring on D)
e|-----|
B|--1--|
G|--2--|
D|--3--|
A|-----|
E|--1--|

    C
e|-----|
B|--1--|
G|--0--|
D|--2--|
A|--3--|
E|-----|

    G 
e|-----|
B|--0--|
G|--0--|
D|--0--|
A|-----|
E|--3--|


GUITAR 1
Intro (Played x2)
          Am             F                   C                G
e|--------------------------------------------------------------------------|
B|-------1-------1---------1-------1--------1-------1--------0-------0------|
G|---2-------2--------2--------2--------0-------0--------0-------0----------|
D|-----2-------0---------3-------3--------2-------2--------0-------0--------|
A|-0-------0--------------------------3-------3-----------------------------|
E|------------------1--------1-------------------------3-------3------------|
Verse 1 (Played x6) 
          Am             F                   C                G
e|--------------------------------------------------------------------------|
B|-------1-------1---------1-------1--------1-------1--------0-------0------|
G|---2-------2--------2--------2--------0-------0--------0-------0----------|
D|-----2-------2---------3-------3--------2-------2--------0-------0--------|
A|-0-------0--------------------------3-------3-----------------------------|
E|------------------1--------1-------------------------3-------3------------|

PreChorus (Played x8)
        F
e|--------------|
B|----------1---|
G|-----2--------|
D|--------3-----|
A|--------------|
E|---1----------|

Chorus (Played x4)
          Am             F                   C                G
e|--------------------------------------------------------------------------|
B|-------1-------1---------1-------1--------1-------1--------0-------0------|
G|---2-------2--------2--------2--------0-------0--------0-------0----------|
D|-----2-------0---------3-------3--------2-------2--------0-------0--------|
A|-0-------0--------------------------3-------3-----------------------------|
E|------------------1--------1-------------------------3-------3------------|

Verse 2 (Played x4) 
          Am             F                   C                G
e|--------------------------------------------------------------------------|
B|-------1-------1---------1-------1--------1-------1--------0-------0------|
G|---2-------2--------2--------2--------0-------0--------0-------0----------|
D|-----2-------2---------3-------3--------2-------2--------0-------0--------|
A|-0-------0--------------------------3-------3-----------------------------|
E|------------------1--------1-------------------------3-------3------------|

PreChorus (Played x8)
        F
e|--------------|
B|----------1---|
G|-----2--------|
D|--------3-----|
A|--------------|
E|---1----------|

Chorus (Played x4)
          Am             F                   C                G
e|--------------------------------------------------------------------------|
B|-------1-------1---------1-------1--------1-------1--------0-------0------|
G|---2-------2--------2--------2--------0-------0--------0-------0----------|
D|-----2-------0---------3-------3--------2-------2--------0-------0--------|
A|-0-------0--------------------------3-------3-----------------------------|
E|------------------1--------1-------------------------3-------3------------|

Bridge (Played x4)
           F                   C                G              G
e|--------------------------------------------------------------------------|
B|--------1-------1--------1-------1--------0-------0-------0-------0-------|
G|---2--------2--------0-------0--------0------0--------0-------0-----------|
D|------3-------3--------2-------2--------0-------0-------0-------0---------|
A|-------------------3-------3----------------------------------------------|
E|-1--------1-------------------------3-------3-------3-------3-------------|

Outro (Played X4)
          Am             F                   C                G
e|--------------------------------------------------------------------------|
B|-------1-------1---------1-------1--------1-------1--------0-------0------|
G|---2-------2--------2--------2--------0-------0--------0-------0----------|
D|-----2-------0---------3-------3--------2-------2--------0-------0--------|
A|-0-------0--------------------------3-------3-----------------------------|
E|------------------1--------1-------------------------3-------3------------|

        C (Last Note, strum down I guess)
e|--------------|
B|------1~~~----|
G|-----0~~~-----|
D|----2~~~------|
A|---3~~~-------|
E|--------------|



GUITAR 2 (Does not play in Intro, Verses, PreChorus, or Chorus)
Bridge
e|--------------------------------------------------------------------------|
B|--------------------------------------------------------------------------|
G|---7h9--7--5--7----7h9--7--5----------------------------------------------|
D|-----------------------------7~~--5~~-------------------------------------|
A|--------------------------------------------------------------------------|
E|--------------------------------------------------------------------------|

e|--------------------------------------------------------------------------|
B|--------------------------------------------------------------------------|
G|---7h9--7--5--7----7h9--7--5---7~~--7~~-----------------------------------|
D|--------------------------------------------------------------------------|
A|--------------------------------------------------------------------------|
E|--------------------------------------------------------------------------|

e|--------------------------------------------------------------------------|
B|--------------------------------------------------------------------------|
G|---7h9--7--5--7----7h9--7--5----------------------------------------------|
D|-----------------------------7~~--5~~-------------------------------------|
A|--------------------------------------------------------------------------|
E|--------------------------------------------------------------------------|

e|--------------------------------------------------------------------------|
B|--------------------------------------------------------------------------|
G|---7h9--7--5--7----7h9--7--5----------------------------------------------|
D|-----------------------------7~~--5~~-------------------------------------|
A|--------------------------------------------------------------------------|
E|--------------------------------------------------------------------------|

Outro 
e|----------------------------------------------------------------------|
B|----------------------------------------------------------------------|
G|--5-5---5-5-5---5-5-5---5-5-5---5-5-5---5-5-5-5-5---4-5-4-5-----------|(x3)
D|-------------------------------------------------------------7-9-7-9--|
A|----------------------------------------------------------------------|
E|----------------------------------------------------------------------|

e|--------------------------------------------------------------------------|
B|--------------------------------------------------------------------------|
G|--5-5---5-5-5-5-5----7h9--7--5--7h9--7--5--7h9--7--5--7h9--7--7h9--8~~~---|
D|--------------------------------------------------------------------------|
A|--------------------------------------------------------------------------|
E|--------------------------------------------------------------------------|

************************************

| /   slide up
| \   slide down
| h   hammer-on
| p   pull-off
| ~   vibrato
| +   harmonic
| x   Mute note
| b   Bend
| pb  Pre-bend
| br  Bend release
| pbr Pre-bend release
| brb Bend release bend

************************************
Tap to rate this tab
# A B C D E F G H I J K L M N O P Q R S T U V W X Y Z