Song name
# A B C D E F G H I J K L M N O P Q R S T U V W X Y Z

Whitley - More Than Life tab

-------------------------------------------------------------------------------
			     More than Life - Whitley
-------------------------------------------------------------------------------
Tabbed by: Brandon Rivera

Tuning:2 steps down
   Chords used:
      Am          F/C          C           G

Verse:
d|-----------------------------------------------------------------------------|
A|--------1---------1--------1----------1---------1----------1--------0------0-|
F|---2---------2--------2----------2---------2----------2----------0------0----|
C|------2---2-----2--------3----3-----3---------2----2-----2-----0---0--0---0--|
G|-0------------------3--------------------3-----------------------------------|
D|-------------------------------------------------------------3---------------|

Bridge:
d|------------------------------------------------------------------------------|
A|------------1----------1---------1--------1--------1-------1-------1----------|
F|-------2---------2----------2--------2--------2--------2------2--------2------|
C|----------3---------3----------3--------3--------3--------3------3--------3---|
G|----3----------3---------3---------3--------3--------3------3--------3--------|
D|------------------------------------------------------------------------------|

This is my tab, hope you find it helpful.. However for the solo, use Breno’s solo.  I 
his solo whenever I play this.
************************************

| /   slide up
| \   slide down
| h   hammer-on
| p   pull-off
| ~   vibrato
| +   harmonic
| x   Mute note
| b   Bend
| pb  Pre-bend
| br  Bend release
| pbr Pre-bend release
| brb Bend release bend

************************************
Tap to rate this tab
# A B C D E F G H I J K L M N O P Q R S T U V W X Y Z