Song name
# A B C D E F G H I J K L M N O P Q R S T U V W X Y Z

Who - Glow Girl tab

GLOW GIRL
THE WHO

Capo on 2
Chords (shape with capo)
F# (E)
B (A)
A (G)
B/A     5x444x
Ano3    5x2225
Abm7    4x4444
Bbm7    6x6666
BII     799877
Gm (Fm) 355333

Note: B7/A riff, A bass implied by bass. Can be labeled F#m/A as well.

[intro and verse]
              x2
| B  B2 B Bsus ||B7/A B7sus2/A B7/A B7sus/A |  F#  A  |
|--------------||---------------------------|---------|
|-4--2--4--5---||--4---2---------4---5------|------2--|
|-4--4--4--4---||--2---2---------2---2------|--3---2--|
|-4--4--4--4---||--4---4---------4---4------|--4---2--|
|-2------------||---------------------------|--4------|
|--------------||-(5)-----------------------|--2---5--|


B B2 B Bsus     B B2 B Bsus  B7/A...........B7/A
Separates   and lingerie,    seven ...

B....               B...      B/A....             F# A
Lots of Woolworth's makeup, ...

     B                       B/A         A(no3)
Your out-of-tune piano, ....

    F#   Abm7   Bbm7 BII  |    A    Gm        F#
The wing on the aero-...

  F#  Abm7         Bbm7 BII| A                   E  |F#
I say without reserva---tion we ...

All you wanted from me, ....
Nothing matters you'll see, ...

The plane is diving faster, ...
Nobody is screaming...

F# [for the 'pop-art' plane crash]

       Badd2      Bsus4   A    E B
       B          Bsus4   Badd2  B
It's a girl, Mrs. Walker, ....
 [bass riff]
||-------------------|-9--9--------||
||-------------------|-----7/9-7/9-||
||-------------9---9-|-------------||
||-----7-----7-------|-------------||



F# A B
Tap to rate this tab
# A B C D E F G H I J K L M N O P Q R S T U V W X Y Z