Guitaretab - guitar tabs
Song name
# A B C D E F G H I J K L M N O P Q R S T U V W X Y Z

Who - The Kids Are Alright tab

The Who
Kids Are Alright (The Ultimate Collection Version)
(only difference is the solo)

Guitar-Clean-eadgbe

This is probably one of my fav Who songs. It just basic chords that you learn when first 
the guitar on clean guitar along with like two barre chords. Its a very easy song

Intro:
|-3-----|
|-3~~---|
|-2~~---|
|-0~~---|
|-------|
|-------| "I Dont mind"

Verse:
|---3-3-3-3-3-3-3-3-3-----------2-2-2-2--|
|---0-0-0-0-0-0-0-0-0--2-2-2-2--3-3-3-3--|
|---0-0-0-0-0-0-0-0-0--2-2-2-2--3-3-3-3--|
|---0-0-0-0-0-0-0-0-0--2-2-2-2--0-0-0-0--|
|---2-2-2-2-2-2-2-2-2--0-0-0-0-----------|
|---3-3-3-3-3-3-3-3-3--------------------|
1. Other guys dancing  with my  girl

|-3-----2-2-2-2-2--3-3-3-3-3-3-3-3---------2-2-2-2-2-2-2-2--|
|-0-2---3-3-3-3-3--0-0-0-0-0-0-0-0--2-2-2--3-3-3-3-3-3-3-3--|
|-0-2---2-2-2-2-2--0-0-0-0-0-0-0-0--2-2-2--2-2-2-2-2-2-2-2--|
|-0-2---0-0-0-0-0--0-0-0-0-0-0-0-0--2-2-2--0-0-0-0-0-0-0-0--|
|-2-0--------------2-2-2-2-2-2-2-2--0-0-0-------------------|
|-3----------------3-3-3-3-3-3-3-3--------------------------|
1.   Thats fine    I know them all  pretty welll

Chorus:
|-----0~~~~~~~~~~~~~~~-------------3~~~~~~~~-2-2~~~~-|
|-----0~~~~~~~~~~~~~~~--2~~~~~~~~~-0~~~~~~~~-3-3~~~~-|
|-----0~~~~~~~~~~~~~~~--2~~~~~~~~~-0~~~~~~~~-2-2~~~~-|
|-----2~~~~~~~~~~~~~~~--2~~~~~~~~~-0~~~~~~~~-0-0~~~~-|
|-----2~~~~~~~~~~~~~~~-(0)~~~~~~~~-2~~~~~~~~---------|
|-----0~~~~~~~~~~~~~~~-------------3~~~~~~~~---------|
  But I know sometimes I must get out in the light

|-----0~~~~~~~~~~~~~~~------------------------2-2-2-2-|
|-----0~~~~~~~~~~~~~~~---2~~~~~~~~~~~~~~~~~---3-3-3-3-|
|-----0~~~~~~~~~~~~~~~---2~~~~~~~~~~~~~~~~~---2-2-2-2-|
|-----2~~~~~~~~~~~~~~~---2~~~~~~~~~~~~~~~~~---0-0-0-0-|
|-----2~~~~~~~~~~~~~~~--(0)~~~~~~~~~~~~~~~~-----------|
|-----0~~~~~~~~~~~~~~~--------------------------------|
   Better leave her behind where the kids are alright

|--------------2-2-2-2-|
|-2-2-2-2-2-2--3-3-3-3-|
|-2-2-2-2-2-2--2-2-2-2-|
|-2-2-2-2-2-2--0-0-0-0-|
|-0-0-0-0-0-0----------|
|----------------------|
  The kids are alright

Verse 2:
|---------|2-2-2-2-2-2-3-3-3-3-3-3-3---------2-2-2--|
|-2-2-2-2-|3-3-3-3-3-3-0-0-0-0-0-0-0-2-2-2-2-3-3-3--|
|-2-2-2-2-|2-2-2-2-2-2-0-0-0-0-0-0-0-2-2-2-2-2-2-2--|
|-2-2-2-2-|0-0-0-0-0-0-0-0-0-0-0-0-0-2-2-2-2-0-0-0--|
|-0-0-0-0-|------------2-2-2-2-2-2-2-0-0-0-0--------|
|---------|------------3-3-3-3-3-3-3----------------|
           2. Sometimes I feel I gotta  get away

|-3-----2-2-2-2-2-3-3-3-3-3-3-3-3--------2-2-2-2-2-|
|-0-2---3-3-3-3-3-3-0-0-0-0-0-0-0--2-2-2-3-3-3-3-3-|
|-0-2---2-2-2-2-2-2-0-0-0-0-0-0-0--2-2-2-2-2-2-2-2-|
|-0-2---0-0-0-0-0-0-0-0-0-0-0-0-0--2-2-2-0-0-0-0-0-|
|-2-0---------------2-2-2-2-2-2-2--0-0-0-----------|
|-3-----------------3-3-3-3-3-3-3------------------|
2.     Bells chime. I know I gotta get   away

Chorus 2:
|------0~~~~~~~~~~~~~--------------3~~~~~~~~-2-2~~~~-|
|------0~~~~~~~~~~~~~--2~~~~~~~~~--0~~~~~~~~-3-3~~~~-|
|------0~~~~~~~~~~~~~--2~~~~~~~~~--0~~~~~~~~-2-2~~~~-|
|------2~~~~~~~~~~~~~--2~~~~~~~~~--0~~~~~~~~-0-0~~~~-|
|------2~~~~~~~~~~~~~-(0)~~~~~~~~--2~~~~~~~~---------|
|------0~~~~~~~~~~~~~--------------3~~~~~~~~---------|
  And I know if I donít Iíll got out of my mind

|-----0~~~~~~~~~~~~~~~------------------------2-2-2-2-|
|-----0~~~~~~~~~~~~~~~---2~~~~~~~~~~~~~~~~~---3-3-3-3-|
|-----0~~~~~~~~~~~~~~~---2~~~~~~~~~~~~~~~~~---2-2-2-2-|
|-----2~~~~~~~~~~~~~~~---2~~~~~~~~~~~~~~~~~---0-0-0-0-|
|-----2~~~~~~~~~~~~~~~--(0)~~~~~~~~~~~~~~~~-----------|
|-----0~~~~~~~~~~~~~~~--------------------------------|
   Better leave her behind where the kids are alright

|--------------2-2-2-2-|
|-2-2-2-2-2-2--3-3-3-3-|
|-2-2-2-2-2-2--2-2-2-2-|
|-2-2-2-2-2-2--0-0-0-0-|
|-0-0-0-0-0-0----------|
|----------------------|
  The kids are alright

Bridge:
|---------------------------------------|
|--2-2-2-2-2-2-2-2-2-2-2-2-2-2-2-2-2-2--|
|--2-2-2-2-2-2-2-2-2-2-2-2-2-2-2-2-2-2--|
|--2-2-2-2-2-2-2-2-2-2-2-2-2-2-2-2-2-2--|
|--0-0-0-0-0-0-0-0-0-0-0-0-0-0-0-0-0-0--|
|---------------------------------------|
PM .....................................

|-----------------------------------------------------------------|
|--2-2-2-2-2-2-2-2-2-2-2-2-2-2-2-2-2-2-3-3-3-3-3-3-3-3-3-3-3-3-3--|
|--2-2-2-2-2-2-2-2-2-2-2-2-2-2-2-2-2-2-4-4-4-4-4-4-4-4-4-4-4-4-4--|
|--2-2-2-2-2-2-2-2-2-2-2-2-2-2-2-2-2-2-5-5-5-5-5-5-5-5-5-5-5-5-5--|
|--0-0-0-0-0-0-0-0-0-0-0-0-0-0-0-0-0-0-5-5-5-5-5-5-5-5-5-5-5-5-5--|
|--------------------------------------3--------------------------|
PM . . . . . . . . . . . . . . . . . . . . . . . . . . . . . .
    I know if I go things'll be a lot better for her
[ Tab from: http://www.guitaretab.com/w/who/20819.html ]
|---------------------------------------------------------------|
|--2-2-2-2-2-2-2-2-2-2-2-2-2-2-2-2-2-2-2-2-2-3-3-3-3-3-3-3-3-3--|
|--2-2-2-2-2-2-2-2-2-2-2-2-2-2-2-2-2-2-2-2-2-4-4-4-4-4-4-4-4-4--|
|--2-2-2-2-2-2-2-2-2-2-2-2-2-2-2-2-2-2-2-2-2-5-5-5-5-5-5-5-5-5--|
|--0-0-0-0-0-0-0-0-0-0-0-0-0-0-0-0-0-0-0-0-0-5-5-5-5-5-5-5-5-5--|
|--------------------------------------------3------------------|
PM . . . . . .  . . . . . . . . . . . . . . . . . . .
      I had things planned but her folks wonít her

Verse 3:
|---3-3-3-3-3-3-3-3-3-----------2-2-2-2--|
|---0-0-0-0-0-0-0-0-0--2-2-2-2--3-3-3-3--|
|---0-0-0-0-0-0-0-0-0--2-2-2-2--3-3-3-3--|
|---0-0-0-0-0-0-0-0-0--2-2-2-2--0-0-0-0--|
|---2-2-2-2-2-2-2-2-2--0-0-0-0-----------|
|---3-3-3-3-3-3-3-3-3--------------------|
3. Other guys dancing  with my  girl

|-3-----2-2-2-2-2--3-3-3-3-3-3-3-3---------2-2-2-2-2-|
|-0-2---3-3-3-3-3--0-0-0-0-0-0-0-0--2-2-2--3-3-3-3-3-|
|-0-2---2-2-2-2-2--0-0-0-0-0-0-0-0--2-2-2--2-2-2-2-2-|
|-0-2---0-0-0-0-0--0-0-0-0-0-0-0-0--2-2-2--0-0-0-0-0-|
|-2-0--------------2-2-2-2-2-2-2-2--0-0-0------------|
|-3----------------3-3-3-3-3-3-3-3-------------------|
3.   Thats fine    I know them all  pretty welll

Chorus:
|-----0~~~~~~~~~~~~~~~-------------3~~~~~~~~-2-2~~~~-|
|-----0~~~~~~~~~~~~~~~--2~~~~~~~~~-0~~~~~~~~-3-3~~~~-|
|-----0~~~~~~~~~~~~~~~--2~~~~~~~~~-0~~~~~~~~-2-2~~~~-|
|-----2~~~~~~~~~~~~~~~--2~~~~~~~~~-0~~~~~~~~-0-0~~~~-|
|-----2~~~~~~~~~~~~~~~-(0)~~~~~~~~-2~~~~~~~~---------|
|-----0~~~~~~~~~~~~~~~-------------3~~~~~~~~---------|
  But I know sometimes I must get out in the light

|-----0~~~~~~~~~~~~~~~------------------------2-2-2-2-|
|-----0~~~~~~~~~~~~~~~---2~~~~~~~~~~~~~~~~~---3-3-3-3-|
|-----0~~~~~~~~~~~~~~~---2~~~~~~~~~~~~~~~~~---2-2-2-2-|
|-----2~~~~~~~~~~~~~~~---2~~~~~~~~~~~~~~~~~---0-0-0-0-|
|-----2~~~~~~~~~~~~~~~--(0)~~~~~~~~~~~~~~~~-----------|
|-----0~~~~~~~~~~~~~~~--------------------------------|
   Better leave her behind where the kids are alright

|--------------2-2-2-2-|
|-2-2-2-2-2-2--3-3-3-3-|
|-2-2-2-2-2-2--2-2-2-2-|
|-2-2-2-2-2-2--0-0-0-0-|
|-0-0-0-0-0-0----------|
|----------------------|
  The kids are alright

Solo: for original recording the solo is longerÖjust play A chord (x0222x or x7765x more)
|-----------------------------3-3-3-3-3-3-3-3-3-3---|
|--2~--2~--2~--2~-------------3-3-3-3-3-3-3-3-3-3---|
|--2~--2~--2~--2~---4-4-4-4-4-4-4-4-4-4-4-4-4-4-4---|
|--2~--2~--2~--2~---5-5-5-5-5-5-5-5-5-5-5-5-5-5-5---|
|--0~--0~--0~--0~---5-5-5-5-5-5-5-5-5-5-5-5-5-5-5---|
|-------------------3-3-3-3-3-3-3-3-3-3-3-3-3-3-3---|

Verse 4:
|--2-2-2-2-2-2-3-3-3-3-3-3-3---------2-2-2--|
|--3-3-3-3-3-3-0-0-0-0-0-0-0-2-2-2-2-3-3-3--|
|--2-2-2-2-2-2-0-0-0-0-0-0-0-2-2-2-2-2-2-2--|
|--0-0-0-0-0-0-0-0-0-0-0-0-0-2-2-2-2-0-0-0--|
|--------------2-2-2-2-2-2-2-0-0-0-0--------|
|--------------3-3-3-3-3-3-3----------------|
2. Sometimes I feel i gotta  get away

|-3-----2-2-2-2-2-3-3-3-3-3-3-3-3--------2-2-2-2-2-|
|-0-2---3-3-3-3-3-3-0-0-0-0-0-0-0--2-2-2-3-3-3-3-3-|
|-0-2---2-2-2-2-2-2-0-0-0-0-0-0-0--2-2-2-2-2-2-2-2-|
|-0-2---0-0-0-0-0-0-0-0-0-0-0-0-0--2-2-2-0-0-0-0-0-|
|-2-0---------------2-2-2-2-2-2-2--0-0-0-----------|
|-3-----------------3-3-3-3-3-3-3------------------|
2.     Bells chime. I know I gotta get   away

Chorus:
|------0~~~~~~~~~~~~~--------------3~~~~~~~~-2-2~~~~-|
|------0~~~~~~~~~~~~~--2~~~~~~~~~--0~~~~~~~~-3-3~~~~-|
|------0~~~~~~~~~~~~~--2~~~~~~~~~--0~~~~~~~~-2-2~~~~-|
|------2~~~~~~~~~~~~~--2~~~~~~~~~--0~~~~~~~~-0-0~~~~-|
|------2~~~~~~~~~~~~~-(0)~~~~~~~~--2~~~~~~~~---------|
|------0~~~~~~~~~~~~~--------------3~~~~~~~~---------|
  And I know if I donít Iíll got out of my mind

|-----0~~~~~~~~~~~~~~~------------------------2-2-2-2-|
|-----0~~~~~~~~~~~~~~~---2~~~~~~~~~~~~~~~~~---3-3-3-3-|
|-----0~~~~~~~~~~~~~~~---2~~~~~~~~~~~~~~~~~---2-2-2-2-|
|-----2~~~~~~~~~~~~~~~---2~~~~~~~~~~~~~~~~~---0-0-0-0-|
|-----2~~~~~~~~~~~~~~~--(0)~~~~~~~~~~~~~~~~-----------|
|-----0~~~~~~~~~~~~~~~--------------------------------|
   Better leave her behind where the kids are alright

|--------------2-2-2-2-3-3-3-3--|
|-2-2-2-2-2-2--3-3-3-3-3-3-3-3--|
|-2-2-2-2-2-2--2-2-2-2-2-2-2-2--|
|-2-2-2-2-2-2--0-0-0-0-0-0-0-0--|
|-0-0-0-0-0-0-------------------|
|-------------------------------|
  The kids are alriiight

Outro:
|--------------2-2-2-2-3-3-3-3--|
|-2-2-2-2-2-2--3-3-3-3-3-3-3-3--|
|-2-2-2-2-2-2--2-2-2-2-2-2-2-2--|
|-2-2-2-2-2-2--0-0-0-0-0-0-0-0--|
|-0-0-0-0-0-0-------------------|
|-------------------------------| x2
  The kids are alriiight

|--------------2-2-2-2-2-2~--|
|-2-2-2-2-2-2--3-3-3-3-3-3~--|
|-2-2-2-2-2-2--2-2-2-2-2-2~--|
|-2-2-2-2-2-2--0-0-0-0-0-0~--|
|-0-0-0-0-0-0----------------|
|----------------------------|
  The kids are alriiight
Related for The Kids Are Alright tab