Song name
# A B C D E F G H I J K L M N O P Q R S T U V W X Y Z

Who - Sparks tab

-------------------------------------------------------------------------------
			     SPARKS - Coldplay
-------------------------------------------------------------------------------
Tabbed by: kevlarmusicmojo

None of these tabs have the lead parts, so I decided to make one.
If you want the rhythm part, I'd recommend Chords, Version 1.
NOTE: I'm not 100% sure if the parenthesized note in the verse is played, but it sounds right.


Tuning: Standard

Effects: Reverb & Chorus


Intro: None

Verse 1: None

Verse 2: (1:03)
e|---------------------------------------------------------------------------|
B|---------------------------------------------------------------------------|
G|--------------------------------10----(13~)---10~--------------------------|
D|-----------------------------------11~----------11~------------------------|
A|--------------------------11/13-------------------13-11~-------------------|
E|---------------------------------------------------------------------------|
  "I'll always look out for you;                That's what I'll do"

Chorus Pt. 1: None (Keys only)

Chorus Pt. 2: (1:24)
e|---------------------------------------------------------------------------|
B|---------------------------------------------------------------------------|
G|--3~---5~---6~---8~---10~--------------------------------------------------|
D|---------------------------------------------------------------------------|
A|---------------------------------------------------------------------------|
E|---------------------------------------------------------------------------|

Interlude: None

Verse 3: (2:05)
e|---------------------------------------------------------------------------|
B|---------------------------------------------------------------------------|
G|-------------------------------10----(13~)---10~---------------------------|
D|----------------------------------11~----------11~-------------------------|
A|-------------------------11/13-------------------13-11~--------------------|
E|---------------------------------------------------------------------------|
  "It's you that I hold on to;                 That's what I do."

Verse 4: (2:16)
e|---------------------------------------------------------------------------|
B|-9~~-----11~-----10~-----9~~-------7~----------7~---6~---------------------|
G|-10~-----10~-----10~-----10~--10---6~----------6~---6~---------------------|
D|-----------------------------------8~----------8~---6~---------------------|
A|---------------------------------------------------------------------------|
E|---------------------------------------------------------------------------|

Chorus Pt. 1: (2:37)
e|---------------------------------------------------------------------------|
B|---------------------------------------------------------------------------|
G|-3~---5~---6~---8~---3~----------------------------------------------------|
D|---------------------------------------------------------------------------|
A|---------------------------------------------------------------------------|
E|---------------------------------------------------------------------------|

Chorus Pt. 2: (2:47)
e|---------------------------------------------------------------------------|
B|---------------------------------------------------------------------------|
G|--3~--3~---5~--5~---6~---8~---10~------------------------------------------|
D|----3~-------3~------------------------------------------------------------|
A|---------------------------------------------------------------------------|
E|---------------------------------------------------------------------------|

Outro: (3:18)
e|---------------------------------------------------------------------------|
B|-------9~---------9~-------------------------------------------------------|
G|-5/6~-------5/6~-----------------------------------------------------------|
D|-----------------------8p6~-6~---8p6~-6~-----------------------------------|
A|---------------------------------------------------------------------------|
E|---------------------------------------------------------------------------|
    "La, la, la, la..."

  (3:24)
e|---------------------------------------------------------------------------|
B|-------9~---------9~-------------------------------------------------------|
G|-5/6~-------5/6~-----------------------------------------------------------|
D|-----------------------10p8~----10p8~--------------------------------------|
A|-----------------------------8~---------8~---------------------------------|
E|---------------------------------------------------------------------------|

  (3:29)
e|---------------------------------------------------------------------------|
B|-------9~---------9~-------------------------------------------------------|
G|-5/6~-------5/6~-----------------------------------------------------------|
D|-----------------------8p6~-6~---8p6~-6~-----------------------------------|
A|---------------------------------------------------------------------------|
E|---------------------------------------------------------------------------|
  (3:34)
e|---------------------------------------------------------------------------|
B|-------9~---------9~-------------------------------------------------------|
G|-5/6~-------5/6~-----------------------------------------------------------|
D|-----------------------10p8~--------------6~-------------------------------|
A|-----------------------------8~--6~--4----4~-------------------------------|
E|---------------------------------------------------------------------------|



| /  slide up
| p  pull-off
| ~  let ring
===============================================================================
Tap to rate this tab
 
# A B C D E F G H I J K L M N O P Q R S T U V W X Y Z