Song name
# A B C D E F G H I J K L M N O P Q R S T U V W X Y Z

Who - Boris The Spider tab

-------------------------------------------------------------------------------
			     Boris The Spider - The Who
-------------------------------------------------------------------------------
Tabbed by:mike alberghini
Email:aghini@suscom.net

Tuning:standard
e|----------------------------------|
B|----------------------------------|
G|----------------------------------|
D|----------------------------------|
A|----------------------------------|
E|--8-7-6-5-4-0-2-2-2-2-2-2-2-------|

e|---------------------------------|
B|---------------------------------|
G|---------------------------------|
D|---------------------------------|
A|-----5-5-----3-3^----------------|
E|-5-5-----3-3---------------------|

e|---------------------------------|
B|---------------------------------|
G|---------------------------------|
D|---------------------------------|
A|-5-5-----3-3---------------------|
E|-----5-5-----3-3^----------------|


| /  slide up
| \  slide down
| h  hammer-on
| p  pull-off
| ~  vibrato
| +  harmonic
| x  Mute note
===============================================================================
Tap to rate this tab
 
# A B C D E F G H I J K L M N O P Q R S T U V W X Y Z