Song name
# A B C D E F G H I J K L M N O P Q R S T U V W X Y Z

Widespread Panic - Pickin Up The Pieces tab

Main chords:
    /  /  /  /    /  /  /  /
|--0----------|--0----------|
|--7----------|--7----------|
|--6----------|--5----------|
|--7----------|--5----------|
|--0----------|--0----------|
|-------------|-------------|

the chords are picked as single notes:
|------------------------------------------------------|
|----7--------------7-----------7----------------7-----|
|---------6---6-----------------------6----6-----------|
|------7---------7---------7-------5----------5--------|
|--0--------0----------0------0----------0-------------|
|------------------------------------------------------|

Chorus:
   /  /  /  /    /   /    /  /
|--7----------|----0---0--0----|
|--8----------|----4---3--1----|
|--9----------|----0---0--0----|
|--9----------|----5---4--2----|
|--7----------|----6---5--3----|
|-------------|----------------|

Pickin' up those pieces (x2)
Putting them away

Not writing you a letter (x2)
Not today

Not wanting to meet my savior (x2)
Not this way

Jam over main chords

Sweating out my worries (x2)
Just another day
Just another day
Just another day
Tap to rate this tab
 
# A B C D E F G H I J K L M N O P Q R S T U V W X Y Z