Song name
# A B C D E F G H I J K L M N O P Q R S T U V W X Y Z

Widespread Panic - Driving Song tab

Widespread panic
Driving song
off Space Wrangler

I got this tab from what I could see JB playing on a live dvd so its only bits and 
but you can get most of the song from it.

Intro
e--7--7--5--3--3--2--2h3--3--5--5---|
B--8--8--5--5--5--3--3----0--5--5---|
G--7--7--6--4--4--2--2----0--6--6---|
D--------7----------------0--7--7---|
A-------------------------2--7--7---|
E-------------------------3--5--5---|

e--7-h8--10-3--3--2h3p2--3--5--5---|
B--8--8--8--3--3--3-3-3--0--5--5---|
G--7--7--7--4--4--2-2-2--0--6--6---|
D-----------5--5---------0--7--7---|
A------------------------2--7--7---|
E------------------------3--5--5---|

Verse
E  G D A E

E                      G             D                  A
Leaves seen through my window payne reminds me that its time to move my
E           G D A E
life again...

Thats repeated through the verse

Fist solo is done in that chord progression

Jam
Gm    Am repeated

Thats all I could really get out of it but I guess having a little bit of a panic tab is 
than having no panic tabs at all.
If any one has any corrections or comments PLEASE make more panic tabs!!!!!
Enjoy
Tap to rate this tab
 
# A B C D E F G H I J K L M N O P Q R S T U V W X Y Z