Guitaretab - guitar tabs
Song name
# A B C D E F G H I J K L M N O P Q R S T U V W X Y Z

Wig Wam - In My Dreams tab

Tabbed by SteveC
Artist - With Broken Wings
Song - In My Dreams
Tuning DADGBe

h = Hammer On
p = Pull Off
. = Palm Mute

e|--------------|
B|--------------|
G|--------------|
D|---------10---|  x2
A|-----7h8------|
D|-0-0----------|
   . .
[ Tab from: http://www.guitaretab.com/w/wig-wam/136496.html ]
e|-------------------|
B|-------------------|
G|-------------------|
D|-8-7-7-7-7h8p7---7-|
A|---------------8---|
D|-------------------|

e|---------------|
B|---------------|
G|---------------|
D|---------7-----|
A|-----8-----8---|
D|-8-8---8-----8-|
   . .   .

e|-----------------------|
B|-----------------------|
G|-----------------------|
D|-5-----------5---------|
A|---8---7h8p7---8-7h8p7-|
D|-----8-----------------|


This is easy to play and I am almost certain this is correct. :)
Enjoy.
Related for In My Dreams tab