Song name
# A B C D E F G H I J K L M N O P Q R S T U V W X Y Z

Wikluh Sky - Pazi Sta Radis tab

---------------------------------------------------------------------------    
       Pazi Sta Radis [Be Careful] - Wikluh Sky
-------------------------------------------------------------------------------
Literally took me 5 mins. to learn, this is the closing credits song
and trailer song to A Serbian Film (2010). Listen to the song for tempo, etc.


Tuning: Standard

e|---------------------------------------------------------------------------|
B|---------------------------------------------------------------------------|
G|---------------------------------------------------------------------------|
D|---------------------------------------------------------------------------|
A|-----4-----6-----4-------------4---6---4-----------------------------------|
E|--4----4------4----4-------4----4----4---4---------------------------------|


e|---------------------------------------------------------------------------|
B|---------------------------------------------------------------------------|
G|---------------------------------------------------------------------------|
D|--7--6-----6---------------------7--6----6---------------------------------|
A|---------8-----8--7--4-----------------8----8--7--4------------------------|
E|---------------------------------------------------------------------------|
Tap to rate this tab
# A B C D E F G H I J K L M N O P Q R S T U V W X Y Z