Guitaretab - guitar tabs
Song name
# A B C D E F G H I J K L M N O P Q R S T U V W X Y Z

Wilco - Impossible Germany tab

-----------------------------------------------------------------------------
Impossible Germany(Solo) - Wilco
-----------------------------------------------------------------------------
Tabbed by:  Daniel Kronick
Email:  dakronick87@aol.com

Notes:  This is my first tab.  Some of the notes during the faster parts are played very 
so I attempted to slow down the song and pick them out accurately.  For the timing, you 
just have to listen to the song.

For the rest of the song, see utkanos's version.

Credit to:  Miles Robinson’s tab of this solo.  I feel mine is substantially different 
I did compare mine to his a few times to see how he handled certain parts.

Tuning:

		Solo Start
e|--------------------------------------------------------------------------|
B|--10--8------------------10h12~~~~~-15p12~~~~~\5------------10h12~~~~~----|
G|---------9--7------------------------------------4b(5)b4------------------|
D|--------------------------------------------------------------------------|
A|--------------------------------------------------------------------------|
E|--------------------------------------------------------------------------|

e|-----------12~~~~~~--15h19~~~~----15p12p10--------------------------------|
B|--15p12h15---------------------------------12~~---------------------------|
G|-------------------------------------------------4b(5)b4------------------|
D|--------------------------------------------------------------------------|
A|--------------------------------------------------------------------------|
E|--------------------------------------------------------------------------|

e|--0-0-0-2-3-------------------------------------10p7-----10-7h10p7--------|
B|--3-0-3-0-0------/12~~~--10p8---------10p8-----------8-------------8------|
G|------------------------------9~~~~~-------9~~----------------------------|
D|----------2---------------------------------------------------------------|
A|--------------------------------------------------------------------------|
E|--------------------------------------------------------------------------|

e|--10-7h10p7-----12—8\5~~~-------------------------------------------------|
B|------------8-----------------------7h8p7-----------------8p7p5h7b(8)b7---|
G|--------------------------------7h9-------7p9-----------------------------|
D|--------------------------5h7h9---------------9p7p5~~~~\------------------|
A|--------------------------------------------------------------------------|
E|--------------------------------------------------------------------------|
[ Tab from: http://www.guitaretab.com/w/wilco/96251.html ]
e|--------------------------------------------------------10h12---7h10p7h8p7|
B|--5h7b(8)b7---5h7b(8)b7---5p3/5—5p3p0-----------3h5-7h8-------------------|
G|--------------------------------------2p0---2h4---------------------------|
D|------------------------------------------2-------------------------------|
A|--------------------------------------------------------------------------|
E|--------------------------------------------------------------------------|

e|---------------------------------------------------------7/12\0-----------|
B|--8p7h8p7-5-3p0-3p0----------------------------5h7h8/10-------------------|
G|--------------------2p0-----0/4~~~~\--------------------------------------|
D|------------------------2h4----------2h4~~~\2-----------------------------|
A|--------------------------------------------------------------------------|
E|--------------------------------------------------------------------------|

e|--8-8--7-5-------------------------------------5—7---8-8p7--5-------------|
B|-----------8—5~~~5--3--------------3h5~5~5~--8-----------------8-5~5~3----|
G|----------------------4p0-4~4~4~h7----------------------------------------|
D|--------------------------------------------------------------------------|
A|--------------------------------------------------------------------------|
E|--------------------------------------------------------------------------|

e|-------12p10p8----8-10-12/15-12h15/19--15---------------------------------|
B|---------------12---------------------------------------------------------|
G|--4p0---------------------------------------------------------------------|
D|--------------------------------------------------------------------------|
A|--------------------------------------------------------------------------|
E|--------------------------------------------------------------------------|

End Solo

(multiple guitars playing)
e|--------------------------------------------------------------------------|
B|---8p7-5----8p7-5----8p7-5---5-7---8p7-5---5-7h8-5h8/12-10----------------|
G|---------7--------7--------7-------------7--------------------------------|
D|--------------------------------------------------------------------------|
A|--------------------------------------------------------------------------|
E|--------------------------------------------------------------------------|

(switches to)
e|--------------------------------------------------------------------------|
B|---8p7-5---5h7--8p7-5---5h7-----8p7-5---5-7h8-5h8/12-10-------------------|
G|---------7------------7---------------7-----------------------------------|
D|--------------------------------------------------------------------------|
A|--------------------------------------------------------------------------|
E|--------------------------------------------------------------------------|


| /  slide up
| \  slide down
| h  hammer-on
| p  pull-off
| ~  vibrato
| +  harmonic
| x  Mute note
=============================================================================
Related for Impossible Germany tab
×
Impossible Germany