Song name
# A B C D E F G H I J K L M N O P Q R S T U V W X Y Z

William Fitzsimmons - The Tide Pulls From The Moon tab

Artist : William Fitzsimmons
Song : The Tide Pulls from the Moon (Intro)
Tabbed by didihug

Standard tuning, CAPO 3


E |-----------8----------------|-----------3----------------|
B |-----------------0----------|-----------------0----------|
G |--------5--------------0----|--------0--------------0----|
D |--------------------7-------|--------------------2-------|
A |----------------------------|----------------------------|
E |--5-------------------------|--0-------------------------|


----------------------------|----------------------------|
-----------------0----------|----------------------------|
-----------0h-2-----2p-0----|-----------0----------------|
--------0-------------------|-----------------0----(0)---|
----------------------------|--------3-------------------|
--3-------------------------|--1-------------------------|


-----------8----------------|-----------3----------------|
-----------------0----------|-----------------0----------|
--------5--------------0----|--------0--------------0----|
--------------------7-------|--------------------2-------|
----------------------------|----------------------------|
--5-------------------------|--0-------------------------|


----------------------------|----------------------------||
-----------3----------------|----------------------------||
-----------------0----------|-----0-----------0----------||
--------4--------------4----|-(4)--------4-----------4---||
--5-----------------5-------|--------5-----------5-------||
----------------------------|----------------------------||


That's about it ! Feel free to rate, comment, correct.
Tap to rate this tab
# A B C D E F G H I J K L M N O P Q R S T U V W X Y Z