Song name
# A B C D E F G H I J K L M N O P Q R S T U V W X Y Z

Williams Dar - Iowa tab

HEY, THIS IS THE RIGHT TAB U FUCKERS:

---------------------------------------|
---------------------------------------|
---------------------------------------|  play it 5 times
----3-2--3-0--3-2----------------------|
----3-2--3-0--3-2----------------------|
----3-2--3-0--3-2----------------------|

VERSE

---------------------------------------|
---------------------------------------|
---------------------------------------|
---------------------------------------|
----3-2--3-0--3-2----------------------|
---------------------------------------|


THIS IS IT! ENJOY IT FUCKERS!!
Tap to rate this tab
# A B C D E F G H I J K L M N O P Q R S T U V W X Y Z