Song name
# A B C D E F G H I J K L M N O P Q R S T U V W X Y Z

Willie Brown - Ragged And Dirty tab

Ragged and Dirty  Willie Brown
This is the YouTube video I listened to for most of this arrangement:

http://www.youtube.com/watch?v=7rcejdkWSpo

but the dude wasn't singing so I listened to this one also:

http://www.youtube.com/watch?v=wbMSz_hO6J0
(Capo 4)


E||-------1----------------|-------1----------------------|-----------------------|
B||--2g3-------------------|--2g3----------1--2--1--------|-----------------------|
G||------------------------|------------------------3--0--|-----0-----------------|
D||----------0-------------|----------0-------------------|--3--------------------|
A||------------------------|------------------------------|--------------1s--2----|
E||----3-------------------|----3-------------------------|-----------------------|


                Lord   I'm        Broke            and     hun    gry


-------------3---------------|--------1-----------------|------------------------|
-----------0-----------------|--2g3---------------------|--1---0-----------------|
---------0-----(0)----(0)----|--------------------------|---------0--------------|
-------0---------------------|-----------0---------0----|---------0--------------|
-----------------------------|--------------------------|--------------0----2----|
--3--------------------------|----3-----------3---------|--3---------------------|


       rag     ged and     dir             ty      too

------------------------|-----------------------|------------------1-------|
--1----4-------1--------|--1--------------------|----------2g3-------------|
------------------------|---------------3--0----|--------------------------|
-------2-----------2----|-------2----------2----|-------0-------------0----|
--3---------3-----------|--3--------------------|--------------------------|
------------------------|------------3----------|--3------------3----------|

-------1-----------------|------------------1-------|-------1-----------------|
--2g3--------------------|----------2g3-------------|--2g3--------------------|
---------------3----0----|--------------------------|---------------3----0----|
----------0---------0----|-------0-------------0----|----------0---------0----|
-------------------------|--------------------------|-------------------------|
----3----------3---------|--3------------3----------|----3----------3---------|


          Lord       I'm     Broke            and     hung            ry

------------------0-------|------------------------|-----------------------|
----------4---------------|--------4-------1-------|-------1---------------|
--------------------------|------------------------|---------------3-------|
-------0-------------0----|--------2----------2----|-------2----------2----|
--------------------------|--3---------------------|--3--------------------|
--3------------3----------|-------------3----------|------------3----------|


       rag     ged and     dirt               y       too

------------------------|--------------------------|------------------1-------|
-------4-------1--------|--1s---2--1---------------|----------2g3-------------|
------------------------|------------------3-------|--------------------------|
-------2-----------2----|---------------------2----|-------0-------------0----|
--3---------------------|--3-----------------------|--------------------------|
------------3-----------|---------------3----------|--3------------3----------|

-------1-----------------|------------------1-------|-------1-----------------|
--2g3--------------------|----------2g3-------------|--2g3--------------------|
---------------3----0----|--------------------------|---------------3----0----|
----------0---------0----|-------0-------------0----|----------0---------0----|
-------------------------|--------------------------|-------------------------|
----3----------3---------|--3------------3----------|----3----------3---------|


               If I       clean up       sweet         ma ma       can  I

-----------------------|--1-----2-------------------|--1--2------------------|
---------------3-------|--------------3-------------|-----------3------------|
-----------------------|----------------------------|------------------------|
-------0----------0----|-----------0-----------0----|--------0----------0----|
-----------------------|----------------------------|------------------------|
--3---------3----------|--2--------------2----------|--2-----------2---------|


  stay            all     night      with            you?

-----------------------|--------------------------|------------------1-------|
--1----4-------1-------|--------1-----------------|----------2g3-------------|
-----------------------|------------------3-------|--------------------------|
-------2----------2----|--------2------------2----|-------0-------------0----|
--3---------3----------|--3-----------------------|--------------------------|
-----------------------|-------------3------------|--3------------3----------|

-------1-----------------|------------------1-------|-------1-----------------||
--2g3--------------------|----------2g3-------------|--2g3--------------------||
---------------3----0----|--------------------------|---------------3----0----||
----------0---------0----|-------0-------------0----|----------0---------0----||
-------------------------|--------------------------|-------------------------||
----3----------3---------|--3------------3----------|----3----------3---------||
Tap to rate this tab
# A B C D E F G H I J K L M N O P Q R S T U V W X Y Z