Song name
# A B C D E F G H I J K L M N O P Q R S T U V W X Y Z

Windhand - Orchard tab

Orchard - Windhand

Tune your guitar down to drop C, that's:

D
A
F
C
G
C

Intro/Verse riff:

|---------------------------------------------|
|---------------------------------------------|
|---------------------------------------------|
|---------------------------------------------|
|--7--7--7/5/7--7/5/7--3--3--3/2/3--3/2/3-----|
|--7--7--7/5/7--7/5/7--3--3--3/2/3--3/2/3-----|

Repeat six times through the intro, four times through verse.

Verse riff 2: (There may be a change in tempo here, you should listen to the song to hear it)

|-------------------------|
|-------------------------|
|-------------------------|
|-------------------------|
|--7--7-7--10--10-3--3----|
|--7--7-7--10--10-3--3----|

Repeat 5 times.
Tap to rate this tab
 
# A B C D E F G H I J K L M N O P Q R S T U V W X Y Z