Winter Gloves - Factories tab

This is pretty much an acoustic version of the Winter Gloves' song "Factories"

Intro:

First time Guitar 1 only, second time Guitars 1 and 2 in unison.

|----------------------------------------------------------|
|----------------------------------------------------------|
|----------------------------------------------------------|
|------0-----0-----0---0----0-------0----0-----0---5-4-0---|
|--------------------------------------------------------2-|
|-3------3-----3-----3---3----3/7-----7----7-----7---------|x2

Verse:

Guitar 2 simply scratches on the strings to the rhythm of Guitar 1.

Guitar 1:
|-----------------------------------------------------------------|
|-----------------------------------------------------------------|
|---------------------------------2-2-2-2-2-2---------------------|
|-------4-4-4-0-0-0-0-0-0-0-0-0-00------------2-2-2-2-2-2-2-4-2-0-|
|-2-2-2-----------------------------------------------------------|
|-----------------------------------------------------------------|x2

Palm muted:
|-----------------------------------------------------------------|
|-----------------------------------------------------------------|
|---------------------------------2-2-2-2-2-2---------------------|
|-------4-4-4-0-0-0-0-0-0-0-0-0-0-------------2-2-2-2-2-2-2-4-2-0-|
|-2-2-2-----------------------------------------------------------|
|-----------------------------------------------------------------|x4

Chorus:

Guitar 1:
I've tabbed it on the G string because the tone better fits the song and make the high 
part seem more separate from the lower part, but of course playing 0-2-3 on the B string 
works as well.

|-------------------------------------------------3-5--2--5-|
|-----------------------------------------------------------|
|-4-4-4-4-4-4-4-4-4-4-4-4-6-6-6-6-7-7-7-7-7-7-7-7-----------|
|-----------------------------------------------------------|
|-----------------------------------------------------------|
|-----------------------------------------------------------|

|-[-------------------------------------------------]-3-5--2--5-|
|-[-------------------------------------------------]-----------|
|-[-4-4-4-4-4-4-4-4-4-4-4-4-6-6-6-6-7-7-7-7-7-7-7-7-]-----------|
|-[-------------------------------------------------]-----------|
|-[-------------------------------------------------]-----------|
|-[-------------------------------------------------]x2---------|

|-------------------------------------------------|
|-------------------------------------------------|
|-4-4-4-4-4-4-4-4-4-4-4-4-6-6-6-6-7-7-7-7-7-7-7-7-|
|-------------------------------------------------|
|-------------------------------------------------|
|-------------------------------------------------|

Guitar 2:

Plays a G bar chord on the third fret followed by a D chord repetitively.

Repeat Verse

Repeat Chorus

Repeat the Intro, but add another repetition without the last four notes at the end.

Winter Gloves' website:
http://paperbagrecords.com/artists/winter-gloves
Tap to rate this tab
 
# A B C D E F G H I J K L M N O P Q R S T U V W X Y Z