Song name
# A B C D E F G H I J K L M N O P Q R S T U V W X Y Z

Wire - Kidney Bingos tab

-------------------------------------------------------------------------------
                             Kidney Bingos - Wire
-------------------------------------------------------------------------------
Tabbed by:Swave




e|-2-2-2-2-2---2-2-2-2-7----|
B|-3-3-3-2-3---3-3-3-2-8----|
G|-2-2-2-2-2---2-2-2-2-7----|
D|-x-x-x-2-x---x-x-x-2-x----|
A|-x-x-x-x-x---x-x-x-x-x----|
E|-x-x-x-x-x---x-x-x-x-x----|

    
    
   
Tap to rate this tab
 
# A B C D E F G H I J K L M N O P Q R S T U V W X Y Z